ISO-10303-21;
HEADER;
/* Generated by software containing ST-Developer
 * from STEP Tools, Inc. (www.steptools.com) 
 */
/* OPTION: using custom renumber hook */

FILE_DESCRIPTION(
/* description */ (''),
/* implementation_level */ '2;1');

FILE_NAME(
/* name */ '5f687910a13d441612cbab26',
/* time_stamp */ '2020-09-21T09:57:37+00:00',
/* author */ (''),
/* organization */ (''),
/* preprocessor_version */ 'ST-DEVELOPER v16.7',
/* originating_system */ $,
/* authorisation */ $);

FILE_SCHEMA (('AUTOMOTIVE_DESIGN {1 0 10303 214 3 1 1}'));
ENDSEC;

DATA;
#10=PROPERTY_DEFINITION_REPRESENTATION(#14,#12);
#11=PROPERTY_DEFINITION_REPRESENTATION(#15,#13);
#12=REPRESENTATION('',(#16),#587);
#13=REPRESENTATION('',(#17),#587);
#14=PROPERTY_DEFINITION('pmi validation property','',#600);
#15=PROPERTY_DEFINITION('pmi validation property','',#600);
#16=VALUE_REPRESENTATION_ITEM('number of annotations',COUNT_MEASURE(0.));
#17=VALUE_REPRESENTATION_ITEM('number of views',COUNT_MEASURE(0.));
#18=CONTEXT_DEPENDENT_SHAPE_REPRESENTATION(#26,#602);
#19=CONTEXT_DEPENDENT_SHAPE_REPRESENTATION(#27,#604);
#20=CONTEXT_DEPENDENT_SHAPE_REPRESENTATION(#28,#606);
#21=CONTEXT_DEPENDENT_SHAPE_REPRESENTATION(#29,#608);
#22=NEXT_ASSEMBLY_USAGE_OCCURRENCE('\X\10\X\15+\X\11V','Part 1',
'Part 1',#609,#610,'');
#23=NEXT_ASSEMBLY_USAGE_OCCURRENCE('','Part 1','Part 1',#609,#611,'');
#24=NEXT_ASSEMBLY_USAGE_OCCURRENCE('/\X\11V','Part 1','Part 1',#609,#612,
'');
#25=NEXT_ASSEMBLY_USAGE_OCCURRENCE('\X\10*\X\11V','Part 3','Part 3',#609,
#613,'');
#26=(
REPRESENTATION_RELATIONSHIP(' ',' ',#349,#348)
REPRESENTATION_RELATIONSHIP_WITH_TRANSFORMATION(#30)
SHAPE_REPRESENTATION_RELATIONSHIP()
);
#27=(
REPRESENTATION_RELATIONSHIP(' ',' ',#350,#348)
REPRESENTATION_RELATIONSHIP_WITH_TRANSFORMATION(#31)
SHAPE_REPRESENTATION_RELATIONSHIP()
);
#28=(
REPRESENTATION_RELATIONSHIP(' ',' ',#351,#348)
REPRESENTATION_RELATIONSHIP_WITH_TRANSFORMATION(#32)
SHAPE_REPRESENTATION_RELATIONSHIP()
);
#29=(
REPRESENTATION_RELATIONSHIP(' ',' ',#352,#348)
REPRESENTATION_RELATIONSHIP_WITH_TRANSFORMATION(#33)
SHAPE_REPRESENTATION_RELATIONSHIP()
);
#30=ITEM_DEFINED_TRANSFORMATION(' ',' ',#353,#375);
#31=ITEM_DEFINED_TRANSFORMATION(' ',' ',#353,#384);
#32=ITEM_DEFINED_TRANSFORMATION(' ',' ',#353,#393);
#33=ITEM_DEFINED_TRANSFORMATION(' ',' ',#353,#404);
#34=SHAPE_REPRESENTATION_RELATIONSHIP('','',#349,#38);
#35=SHAPE_REPRESENTATION_RELATIONSHIP('','',#350,#39);
#36=SHAPE_REPRESENTATION_RELATIONSHIP('','',#351,#40);
#37=SHAPE_REPRESENTATION_RELATIONSHIP('','',#352,#41);
#38=ADVANCED_BREP_SHAPE_REPRESENTATION('',(#339),#588);
#39=ADVANCED_BREP_SHAPE_REPRESENTATION('',(#340),#589);
#40=ADVANCED_BREP_SHAPE_REPRESENTATION('',(#341),#590);
#41=ADVANCED_BREP_SHAPE_REPRESENTATION('',(#342),#591);
#42=VERTEX_LOOP('',#137);
#43=VERTEX_LOOP('',#139);
#44=CONICAL_SURFACE('',#369,8.67361737988404E-19,1.02974425867665);
#45=CONICAL_SURFACE('',#372,8.67361737988404E-19,1.02974425867665);
#46=CONICAL_SURFACE('',#376,0.03,0.785398163397448);
#47=CONICAL_SURFACE('',#403,0.0124948115447572,0.610865238198017);
#48=CYLINDRICAL_SURFACE('',#357,0.01);
#49=CYLINDRICAL_SURFACE('',#361,0.005);
#50=CYLINDRICAL_SURFACE('',#365,0.01);
#51=CYLINDRICAL_SURFACE('',#371,0.0045);
#52=CYLINDRICAL_SURFACE('',#374,0.0045);
#53=CYLINDRICAL_SURFACE('',#382,0.03);
#54=CYLINDRICAL_SURFACE('',#383,0.0025);
#55=CYLINDRICAL_SURFACE('',#385,0.004);
#56=CYLINDRICAL_SURFACE('',#390,0.03);
#57=CYLINDRICAL_SURFACE('',#397,0.004);
#58=CYLINDRICAL_SURFACE('',#401,0.03);
#59=ORIENTED_EDGE('',*,*,#105,.F.);
#60=ORIENTED_EDGE('',*,*,#106,.F.);
#61=ORIENTED_EDGE('',*,*,#106,.T.);
#62=ORIENTED_EDGE('',*,*,#107,.F.);
#63=ORIENTED_EDGE('',*,*,#107,.T.);
#64=ORIENTED_EDGE('',*,*,#108,.F.);
#65=ORIENTED_EDGE('',*,*,#109,.F.);
#66=ORIENTED_EDGE('',*,*,#108,.T.);
#67=ORIENTED_EDGE('',*,*,#110,.F.);
#68=ORIENTED_EDGE('',*,*,#109,.T.);
#69=ORIENTED_EDGE('',*,*,#111,.F.);
#70=ORIENTED_EDGE('',*,*,#110,.T.);
#71=ORIENTED_EDGE('',*,*,#112,.F.);
#72=ORIENTED_EDGE('',*,*,#111,.T.);
#73=ORIENTED_EDGE('',*,*,#113,.T.);
#74=ORIENTED_EDGE('',*,*,#112,.T.);
#75=ORIENTED_EDGE('',*,*,#113,.F.);
#76=ORIENTED_EDGE('',*,*,#114,.T.);
#77=ORIENTED_EDGE('',*,*,#105,.T.);
#78=ORIENTED_EDGE('',*,*,#114,.F.);
#79=ORIENTED_EDGE('',*,*,#115,.T.);
#80=ORIENTED_EDGE('',*,*,#116,.F.);
#81=ORIENTED_EDGE('',*,*,#117,.F.);
#82=ORIENTED_EDGE('',*,*,#118,.F.);
#83=ORIENTED_EDGE('',*,*,#115,.F.);
#84=ORIENTED_EDGE('',*,*,#118,.T.);
#85=ORIENTED_EDGE('',*,*,#117,.T.);
#86=ORIENTED_EDGE('',*,*,#116,.T.);
#87=ORIENTED_EDGE('',*,*,#119,.T.);
#88=ORIENTED_EDGE('',*,*,#120,.F.);
#89=ORIENTED_EDGE('',*,*,#120,.T.);
#90=ORIENTED_EDGE('',*,*,#121,.F.);
#91=ORIENTED_EDGE('',*,*,#121,.T.);
#92=ORIENTED_EDGE('',*,*,#122,.F.);
#93=ORIENTED_EDGE('',*,*,#122,.T.);
#94=ORIENTED_EDGE('',*,*,#119,.F.);
#95=ORIENTED_EDGE('',*,*,#123,.T.);
#96=ORIENTED_EDGE('',*,*,#124,.F.);
#97=ORIENTED_EDGE('',*,*,#125,.F.);
#98=ORIENTED_EDGE('',*,*,#124,.T.);
#99=ORIENTED_EDGE('',*,*,#125,.T.);
#100=ORIENTED_EDGE('',*,*,#126,.F.);
#101=ORIENTED_EDGE('',*,*,#126,.T.);
#102=ORIENTED_EDGE('',*,*,#127,.F.);
#103=ORIENTED_EDGE('',*,*,#127,.T.);
#104=ORIENTED_EDGE('',*,*,#123,.F.);
#105=EDGE_CURVE('',#128,#128,#153,.T.);
#106=EDGE_CURVE('',#129,#129,#154,.T.);
#107=EDGE_CURVE('',#130,#130,#155,.T.);
#108=EDGE_CURVE('',#131,#131,#156,.T.);
#109=EDGE_CURVE('',#132,#132,#157,.T.);
#110=EDGE_CURVE('',#133,#133,#158,.T.);
#111=EDGE_CURVE('',#134,#134,#159,.T.);
#112=EDGE_CURVE('',#135,#135,#160,.T.);
#113=EDGE_CURVE('',#136,#136,#161,.T.);
#114=EDGE_CURVE('',#138,#138,#162,.T.);
#115=EDGE_CURVE('',#140,#140,#163,.T.);
#116=EDGE_CURVE('',#141,#141,#164,.F.);
#117=EDGE_CURVE('',#142,#142,#165,.T.);
#118=EDGE_CURVE('',#143,#143,#166,.T.);
#119=EDGE_CURVE('',#144,#144,#167,.T.);
#120=EDGE_CURVE('',#145,#145,#168,.T.);
#121=EDGE_CURVE('',#146,#146,#169,.T.);
#122=EDGE_CURVE('',#147,#147,#170,.T.);
#123=EDGE_CURVE('',#148,#148,#171,.T.);
#124=EDGE_CURVE('',#149,#149,#172,.T.);
#125=EDGE_CURVE('',#150,#150,#173,.T.);
#126=EDGE_CURVE('',#151,#151,#174,.T.);
#127=EDGE_CURVE('',#152,#152,#175,.T.);
#128=VERTEX_POINT('',#512);
#129=VERTEX_POINT('',#514);
#130=VERTEX_POINT('',#517);
#131=VERTEX_POINT('',#520);
#132=VERTEX_POINT('',#523);
#133=VERTEX_POINT('',#526);
#134=VERTEX_POINT('',#529);
#135=VERTEX_POINT('',#532);
#136=VERTEX_POINT('',#535);
#137=VERTEX_POINT('',#536);
#138=VERTEX_POINT('',#540);
#139=VERTEX_POINT('',#541);
#140=VERTEX_POINT('',#546);
#141=VERTEX_POINT('',#548);
#142=VERTEX_POINT('',#551);
#143=VERTEX_POINT('',#553);
#144=VERTEX_POINT('',#559);
#145=VERTEX_POINT('',#561);
#146=VERTEX_POINT('',#564);
#147=VERTEX_POINT('',#567);
#148=VERTEX_POINT('',#572);
#149=VERTEX_POINT('',#574);
#150=VERTEX_POINT('',#577);
#151=VERTEX_POINT('',#580);
#152=VERTEX_POINT('',#583);
#153=CIRCLE('',#355,0.0045);
#154=CIRCLE('',#356,0.01);
#155=CIRCLE('',#358,0.01);
#156=CIRCLE('',#360,0.005);
#157=CIRCLE('',#362,0.005);
#158=CIRCLE('',#364,0.01);
#159=CIRCLE('',#366,0.01);
#160=CIRCLE('',#368,0.0045);
#161=CIRCLE('',#370,0.0045);
#162=CIRCLE('',#373,0.0045);
#163=CIRCLE('',#377,0.03);
#164=CIRCLE('',#378,0.0025);
#165=CIRCLE('',#380,0.0025);
#166=CIRCLE('',#381,0.03);
#167=CIRCLE('',#386,0.004);
#168=CIRCLE('',#387,0.004);
#169=CIRCLE('',#389,0.03);
#170=CIRCLE('',#391,0.03);
#171=CIRCLE('',#395,0.0124948115447572);
#172=CIRCLE('',#396,0.004);
#173=CIRCLE('',#398,0.004);
#174=CIRCLE('',#400,0.03);
#175=CIRCLE('',#402,0.03);
#176=EDGE_LOOP('',(#59));
#177=EDGE_LOOP('',(#60));
#178=EDGE_LOOP('',(#61));
#179=EDGE_LOOP('',(#62));
#180=EDGE_LOOP('',(#63));
#181=EDGE_LOOP('',(#64));
#182=EDGE_LOOP('',(#65));
#183=EDGE_LOOP('',(#66));
#184=EDGE_LOOP('',(#67));
#185=EDGE_LOOP('',(#68));
#186=EDGE_LOOP('',(#69));
#187=EDGE_LOOP('',(#70));
#188=EDGE_LOOP('',(#71));
#189=EDGE_LOOP('',(#72));
#190=EDGE_LOOP('',(#73));
#191=EDGE_LOOP('',(#74));
#192=EDGE_LOOP('',(#75));
#193=EDGE_LOOP('',(#76));
#194=EDGE_LOOP('',(#77));
#195=EDGE_LOOP('',(#78));
#196=EDGE_LOOP('',(#79));
#197=EDGE_LOOP('',(#80));
#198=EDGE_LOOP('',(#81));
#199=EDGE_LOOP('',(#82));
#200=EDGE_LOOP('',(#83));
#201=EDGE_LOOP('',(#84));
#202=EDGE_LOOP('',(#85));
#203=EDGE_LOOP('',(#86));
#204=EDGE_LOOP('',(#87));
#205=EDGE_LOOP('',(#88));
#206=EDGE_LOOP('',(#89));
#207=EDGE_LOOP('',(#90));
#208=EDGE_LOOP('',(#91));
#209=EDGE_LOOP('',(#92));
#210=EDGE_LOOP('',(#93));
#211=EDGE_LOOP('',(#94));
#212=EDGE_LOOP('',(#95));
#213=EDGE_LOOP('',(#96));
#214=EDGE_LOOP('',(#97));
#215=EDGE_LOOP('',(#98));
#216=EDGE_LOOP('',(#99));
#217=EDGE_LOOP('',(#100));
#218=EDGE_LOOP('',(#101));
#219=EDGE_LOOP('',(#102));
#220=EDGE_LOOP('',(#103));
#221=EDGE_LOOP('',(#104));
#222=FACE_BOUND('',#176,.T.);
#223=FACE_BOUND('',#177,.T.);
#224=FACE_BOUND('',#178,.T.);
#225=FACE_BOUND('',#179,.T.);
#226=FACE_BOUND('',#180,.T.);
#227=FACE_BOUND('',#181,.T.);
#228=FACE_BOUND('',#182,.T.);
#229=FACE_BOUND('',#183,.T.);
#230=FACE_BOUND('',#184,.T.);
#231=FACE_BOUND('',#185,.T.);
#232=FACE_BOUND('',#186,.T.);
#233=FACE_BOUND('',#187,.T.);
#234=FACE_BOUND('',#188,.T.);
#235=FACE_BOUND('',#189,.T.);
#236=FACE_BOUND('',#190,.T.);
#237=FACE_BOUND('',#42,.T.);
#238=FACE_BOUND('',#191,.T.);
#239=FACE_BOUND('',#192,.T.);
#240=FACE_BOUND('',#193,.T.);
#241=FACE_BOUND('',#43,.T.);
#242=FACE_BOUND('',#194,.T.);
#243=FACE_BOUND('',#195,.T.);
#244=FACE_BOUND('',#196,.T.);
#245=FACE_BOUND('',#197,.T.);
#246=FACE_BOUND('',#198,.T.);
#247=FACE_BOUND('',#199,.T.);
#248=FACE_BOUND('',#200,.T.);
#249=FACE_BOUND('',#201,.T.);
#250=FACE_BOUND('',#202,.T.);
#251=FACE_BOUND('',#203,.T.);
#252=FACE_BOUND('',#204,.T.);
#253=FACE_BOUND('',#205,.T.);
#254=FACE_BOUND('',#206,.T.);
#255=FACE_BOUND('',#207,.T.);
#256=FACE_BOUND('',#208,.T.);
#257=FACE_BOUND('',#209,.T.);
#258=FACE_BOUND('',#210,.T.);
#259=FACE_BOUND('',#211,.T.);
#260=FACE_BOUND('',#212,.T.);
#261=FACE_BOUND('',#213,.T.);
#262=FACE_BOUND('',#214,.T.);
#263=FACE_BOUND('',#215,.T.);
#264=FACE_BOUND('',#216,.T.);
#265=FACE_BOUND('',#217,.T.);
#266=FACE_BOUND('',#218,.T.);
#267=FACE_BOUND('',#219,.T.);
#268=FACE_BOUND('',#220,.T.);
#269=FACE_BOUND('',#221,.T.);
#270=PLANE('',#354);
#271=PLANE('',#359);
#272=PLANE('',#363);
#273=PLANE('',#367);
#274=PLANE('',#379);
#275=PLANE('',#388);
#276=PLANE('',#392);
#277=PLANE('',#394);
#278=PLANE('',#399);
#279=ADVANCED_FACE('',(#222,#223),#270,.T.);
#280=ADVANCED_FACE('',(#224,#225),#48,.T.);
#281=ADVANCED_FACE('',(#226,#227),#271,.T.);
#282=ADVANCED_FACE('',(#228,#229),#49,.T.);
#283=ADVANCED_FACE('',(#230,#231),#272,.F.);
#284=ADVANCED_FACE('',(#232,#233),#50,.T.);
#285=ADVANCED_FACE('',(#234,#235),#273,.F.);
#286=ADVANCED_FACE('',(#236,#237),#44,.F.);
#287=ADVANCED_FACE('',(#238,#239),#51,.F.);
#288=ADVANCED_FACE('',(#240,#241),#45,.F.);
#289=ADVANCED_FACE('',(#242,#243),#52,.F.);
#290=ADVANCED_FACE('',(#244,#245),#46,.T.);
#291=ADVANCED_FACE('',(#246,#247),#274,.F.);
#292=ADVANCED_FACE('',(#248,#249),#53,.T.);
#293=ADVANCED_FACE('',(#250,#251),#54,.F.);
#294=ADVANCED_FACE('',(#252,#253),#55,.F.);
#295=ADVANCED_FACE('',(#254,#255),#275,.T.);
#296=ADVANCED_FACE('',(#256,#257),#56,.T.);
#297=ADVANCED_FACE('',(#258,#259),#276,.T.);
#298=ADVANCED_FACE('',(#260,#261),#277,.T.);
#299=ADVANCED_FACE('',(#262,#263),#57,.F.);
#300=ADVANCED_FACE('',(#264,#265),#278,.T.);
#301=ADVANCED_FACE('',(#266,#267),#58,.T.);
#302=ADVANCED_FACE('',(#268,#269),#47,.T.);
#303=CLOSED_SHELL('',(#279,#280,#281,#282,#283,#284,#285,#286,#287,#288,
#289));
#304=CLOSED_SHELL('',(#290,#291,#292,#293));
#305=CLOSED_SHELL('',(#294,#295,#296,#297));
#306=CLOSED_SHELL('',(#298,#299,#300,#301,#302));
#307=STYLED_ITEM('',(#311),#339);
#308=STYLED_ITEM('',(#312),#340);
#309=STYLED_ITEM('',(#313),#341);
#310=STYLED_ITEM('',(#314),#342);
#311=PRESENTATION_STYLE_ASSIGNMENT((#315));
#312=PRESENTATION_STYLE_ASSIGNMENT((#316));
#313=PRESENTATION_STYLE_ASSIGNMENT((#317));
#314=PRESENTATION_STYLE_ASSIGNMENT((#318));
#315=SURFACE_STYLE_USAGE(.BOTH.,#319);
#316=SURFACE_STYLE_USAGE(.BOTH.,#320);
#317=SURFACE_STYLE_USAGE(.BOTH.,#321);
#318=SURFACE_STYLE_USAGE(.BOTH.,#322);
#319=SURFACE_SIDE_STYLE('',(#323));
#320=SURFACE_SIDE_STYLE('',(#324));
#321=SURFACE_SIDE_STYLE('',(#325));
#322=SURFACE_SIDE_STYLE('',(#326));
#323=SURFACE_STYLE_FILL_AREA(#327);
#324=SURFACE_STYLE_FILL_AREA(#328);
#325=SURFACE_STYLE_FILL_AREA(#329);
#326=SURFACE_STYLE_FILL_AREA(#330);
#327=FILL_AREA_STYLE('',(#331));
#328=FILL_AREA_STYLE('',(#332));
#329=FILL_AREA_STYLE('',(#333));
#330=FILL_AREA_STYLE('',(#334));
#331=FILL_AREA_STYLE_COLOUR('',#335);
#332=FILL_AREA_STYLE_COLOUR('',#336);
#333=FILL_AREA_STYLE_COLOUR('',#337);
#334=FILL_AREA_STYLE_COLOUR('',#338);
#335=COLOUR_RGB('',0.0862745098039216,0.31764705882353,0.690196078431373);
#336=COLOUR_RGB('',0.537254901960784,0.854901960784314,0.827450980392157);
#337=COLOUR_RGB('',0.513725490196078,0.415686274509804,0.733333333333333);
#338=COLOUR_RGB('',0.231372549019608,0.380392156862745,0.705882352941177);
#339=MANIFOLD_SOLID_BREP('Part 1',#303);
#340=MANIFOLD_SOLID_BREP('Part 1',#304);
#341=MANIFOLD_SOLID_BREP('Part 1',#305);
#342=MANIFOLD_SOLID_BREP('Part 3',#306);
#343=SHAPE_DEFINITION_REPRESENTATION(#600,#348);
#344=SHAPE_DEFINITION_REPRESENTATION(#601,#349);
#345=SHAPE_DEFINITION_REPRESENTATION(#603,#350);
#346=SHAPE_DEFINITION_REPRESENTATION(#605,#351);
#347=SHAPE_DEFINITION_REPRESENTATION(#607,#352);
#348=SHAPE_REPRESENTATION('Pi\X\E8ces \X\E0 usiner',(#353,#375,#384,#393,
#404),#587);
#349=SHAPE_REPRESENTATION('Part 1',(#353),#588);
#350=SHAPE_REPRESENTATION('Part 1',(#353),#589);
#351=SHAPE_REPRESENTATION('Part 1',(#353),#590);
#352=SHAPE_REPRESENTATION('Part 3',(#353),#591);
#353=AXIS2_PLACEMENT_3D('',#509,#405,#406);
#354=AXIS2_PLACEMENT_3D('',#510,#407,#408);
#355=AXIS2_PLACEMENT_3D('',#511,#409,#410);
#356=AXIS2_PLACEMENT_3D('',#513,#411,#412);
#357=AXIS2_PLACEMENT_3D('',#515,#413,#414);
#358=AXIS2_PLACEMENT_3D('',#516,#415,#416);
#359=AXIS2_PLACEMENT_3D('',#518,#417,#418);
#360=AXIS2_PLACEMENT_3D('',#519,#419,#420);
#361=AXIS2_PLACEMENT_3D('',#521,#421,#422);
#362=AXIS2_PLACEMENT_3D('',#522,#423,#424);
#363=AXIS2_PLACEMENT_3D('',#524,#425,#426);
#364=AXIS2_PLACEMENT_3D('',#525,#427,#428);
#365=AXIS2_PLACEMENT_3D('',#527,#429,#430);
#366=AXIS2_PLACEMENT_3D('',#528,#431,#432);
#367=AXIS2_PLACEMENT_3D('',#530,#433,#434);
#368=AXIS2_PLACEMENT_3D('',#531,#435,#436);
#369=AXIS2_PLACEMENT_3D('',#533,#437,#438);
#370=AXIS2_PLACEMENT_3D('',#534,#439,#440);
#371=AXIS2_PLACEMENT_3D('',#537,#441,#442);
#372=AXIS2_PLACEMENT_3D('',#538,#443,#444);
#373=AXIS2_PLACEMENT_3D('',#539,#445,#446);
#374=AXIS2_PLACEMENT_3D('',#542,#447,#448);
#375=AXIS2_PLACEMENT_3D('',#543,#449,#450);
#376=AXIS2_PLACEMENT_3D('',#544,#451,#452);
#377=AXIS2_PLACEMENT_3D('',#545,#453,#454);
#378=AXIS2_PLACEMENT_3D('',#547,#455,#456);
#379=AXIS2_PLACEMENT_3D('',#549,#457,#458);
#380=AXIS2_PLACEMENT_3D('',#550,#459,#460);
#381=AXIS2_PLACEMENT_3D('',#552,#461,#462);
#382=AXIS2_PLACEMENT_3D('',#554,#463,#464);
#383=AXIS2_PLACEMENT_3D('',#555,#465,#466);
#384=AXIS2_PLACEMENT_3D('',#556,#467,#468);
#385=AXIS2_PLACEMENT_3D('',#557,#469,#470);
#386=AXIS2_PLACEMENT_3D('',#558,#471,#472);
#387=AXIS2_PLACEMENT_3D('',#560,#473,#474);
#388=AXIS2_PLACEMENT_3D('',#562,#475,#476);
#389=AXIS2_PLACEMENT_3D('',#563,#477,#478);
#390=AXIS2_PLACEMENT_3D('',#565,#479,#480);
#391=AXIS2_PLACEMENT_3D('',#566,#481,#482);
#392=AXIS2_PLACEMENT_3D('',#568,#483,#484);
#393=AXIS2_PLACEMENT_3D('',#569,#485,#486);
#394=AXIS2_PLACEMENT_3D('',#570,#487,#488);
#395=AXIS2_PLACEMENT_3D('',#571,#489,#490);
#396=AXIS2_PLACEMENT_3D('',#573,#491,#492);
#397=AXIS2_PLACEMENT_3D('',#575,#493,#494);
#398=AXIS2_PLACEMENT_3D('',#576,#495,#496);
#399=AXIS2_PLACEMENT_3D('',#578,#497,#498);
#400=AXIS2_PLACEMENT_3D('',#579,#499,#500);
#401=AXIS2_PLACEMENT_3D('',#581,#501,#502);
#402=AXIS2_PLACEMENT_3D('',#582,#503,#504);
#403=AXIS2_PLACEMENT_3D('',#584,#505,#506);
#404=AXIS2_PLACEMENT_3D('',#585,#507,#508);
#405=DIRECTION('',(0.,0.,1.));
#406=DIRECTION('',(1.,0.,0.));
#407=DIRECTION('',(1.,0.,0.));
#408=DIRECTION('',(0.,0.,-1.));
#409=DIRECTION('',(1.,0.,0.));
#410=DIRECTION('',(0.,0.,-1.));
#411=DIRECTION('',(-1.,0.,0.));
#412=DIRECTION('',(0.,0.,1.));
#413=DIRECTION('',(-1.,0.,0.));
#414=DIRECTION('',(0.,0.,1.));
#415=DIRECTION('',(-1.,0.,0.));
#416=DIRECTION('',(0.,0.,1.));
#417=DIRECTION('',(-1.,0.,0.));
#418=DIRECTION('',(0.,0.,1.));
#419=DIRECTION('',(-1.,0.,0.));
#420=DIRECTION('',(0.,0.,1.));
#421=DIRECTION('',(-1.,0.,0.));
#422=DIRECTION('',(0.,0.,1.));
#423=DIRECTION('',(-1.,0.,0.));
#424=DIRECTION('',(0.,0.,1.));
#425=DIRECTION('',(-1.,0.,0.));
#426=DIRECTION('',(0.,0.,1.));
#427=DIRECTION('',(-1.,0.,0.));
#428=DIRECTION('',(0.,0.,1.));
#429=DIRECTION('',(-1.,0.,0.));
#430=DIRECTION('',(0.,0.,1.));
#431=DIRECTION('',(-1.,0.,0.));
#432=DIRECTION('',(0.,0.,1.));
#433=DIRECTION('',(1.,0.,0.));
#434=DIRECTION('',(0.,0.,-1.));
#435=DIRECTION('',(-1.,0.,0.));
#436=DIRECTION('',(0.,0.,1.));
#437=DIRECTION('',(-1.,0.,0.));
#438=DIRECTION('',(0.,0.,1.));
#439=DIRECTION('',(-1.,0.,0.));
#440=DIRECTION('',(0.,0.,1.));
#441=DIRECTION('',(-1.,0.,0.));
#442=DIRECTION('',(0.,0.,1.));
#443=DIRECTION('',(1.,0.,0.));
#444=DIRECTION('',(0.,0.,-1.));
#445=DIRECTION('',(1.,0.,0.));
#446=DIRECTION('',(0.,0.,-1.));
#447=DIRECTION('',(1.,0.,0.));
#448=DIRECTION('',(0.,0.,-1.));
#449=DIRECTION('',(0.,0.,1.));
#450=DIRECTION('',(1.,0.,0.));
#451=DIRECTION('',(0.,0.,-1.));
#452=DIRECTION('',(-1.,0.,0.));
#453=DIRECTION('',(0.,0.,1.));
#454=DIRECTION('',(1.,0.,0.));
#455=DIRECTION('',(0.,0.,-1.));
#456=DIRECTION('',(-1.,0.,0.));
#457=DIRECTION('',(0.,0.,1.));
#458=DIRECTION('',(1.,0.,0.));
#459=DIRECTION('',(0.,0.,-1.));
#460=DIRECTION('',(-1.,0.,0.));
#461=DIRECTION('',(0.,0.,1.));
#462=DIRECTION('',(1.,0.,0.));
#463=DIRECTION('',(0.,0.,1.));
#464=DIRECTION('',(1.,0.,0.));
#465=DIRECTION('',(0.,0.,-1.));
#466=DIRECTION('',(-1.,0.,0.));
#467=DIRECTION('',(-1.,0.,0.));
#468=DIRECTION('',(0.,0.,1.));
#469=DIRECTION('',(-1.,0.,0.));
#470=DIRECTION('',(0.,0.,1.));
#471=DIRECTION('',(-1.,0.,0.));
#472=DIRECTION('',(0.,0.,1.));
#473=DIRECTION('',(-1.,0.,0.));
#474=DIRECTION('',(0.,0.,1.));
#475=DIRECTION('',(1.,0.,0.));
#476=DIRECTION('',(0.,0.,-1.));
#477=DIRECTION('',(-1.,0.,0.));
#478=DIRECTION('',(0.,0.,1.));
#479=DIRECTION('',(-1.,0.,0.));
#480=DIRECTION('',(0.,0.,1.));
#481=DIRECTION('',(-1.,0.,0.));
#482=DIRECTION('',(0.,0.,1.));
#483=DIRECTION('',(-1.,0.,0.));
#484=DIRECTION('',(0.,0.,1.));
#485=DIRECTION('',(0.,0.,1.));
#486=DIRECTION('',(1.,0.,0.));
#487=DIRECTION('',(-1.,0.,0.));
#488=DIRECTION('',(0.,0.,1.));
#489=DIRECTION('',(-1.,0.,0.));
#490=DIRECTION('',(0.,0.,1.));
#491=DIRECTION('',(-1.,0.,0.));
#492=DIRECTION('',(0.,0.,1.));
#493=DIRECTION('',(-1.,0.,0.));
#494=DIRECTION('',(0.,0.,1.));
#495=DIRECTION('',(-1.,0.,0.));
#496=DIRECTION('',(0.,0.,1.));
#497=DIRECTION('',(1.,0.,0.));
#498=DIRECTION('',(0.,0.,-1.));
#499=DIRECTION('',(-1.,0.,0.));
#500=DIRECTION('',(0.,0.,1.));
#501=DIRECTION('',(-1.,0.,0.));
#502=DIRECTION('',(0.,0.,1.));
#503=DIRECTION('',(-1.,0.,0.));
#504=DIRECTION('',(0.,0.,1.));
#505=DIRECTION('',(1.,0.,0.));
#506=DIRECTION('',(0.,0.,-1.));
#507=DIRECTION('',(0.,0.,1.));
#508=DIRECTION('',(1.,0.,0.));
#509=CARTESIAN_POINT('',(0.,0.,0.));
#510=CARTESIAN_POINT('',(0.065,0.,0.005));
#511=CARTESIAN_POINT('',(0.065,0.,0.));
#512=CARTESIAN_POINT('',(0.065,0.,-0.0045));
#513=CARTESIAN_POINT('',(0.065,0.,0.));
#514=CARTESIAN_POINT('',(0.065,0.,0.01));
#515=CARTESIAN_POINT('',(-0.0325,0.,0.));
#516=CARTESIAN_POINT('',(0.025,0.,0.));
#517=CARTESIAN_POINT('',(0.025,0.,0.01));
#518=CARTESIAN_POINT('',(0.025,0.,0.0075));
#519=CARTESIAN_POINT('',(0.025,0.,0.));
#520=CARTESIAN_POINT('',(0.025,0.,0.005));
#521=CARTESIAN_POINT('',(-0.0325,0.,0.));
#522=CARTESIAN_POINT('',(-0.025,0.,0.));
#523=CARTESIAN_POINT('',(-0.025,0.,0.005));
#524=CARTESIAN_POINT('',(-0.025,0.,0.0075));
#525=CARTESIAN_POINT('',(-0.025,0.,0.));
#526=CARTESIAN_POINT('',(-0.025,0.,0.01));
#527=CARTESIAN_POINT('',(-0.0325,0.,0.));
#528=CARTESIAN_POINT('',(-0.065,0.,0.));
#529=CARTESIAN_POINT('',(-0.065,0.,0.01));
#530=CARTESIAN_POINT('',(-0.065,0.,0.005));
#531=CARTESIAN_POINT('',(-0.065,0.,0.));
#532=CARTESIAN_POINT('',(-0.065,0.,0.0045));
#533=CARTESIAN_POINT('',(-0.037296127214376,0.,0.));
#534=CARTESIAN_POINT('',(-0.04,0.,0.));
#535=CARTESIAN_POINT('',(-0.04,0.,0.0045));
#536=CARTESIAN_POINT('',(-0.037296127214376,0.,8.67361737988404E-19));
#537=CARTESIAN_POINT('',(-0.051148063607188,0.,0.));
#538=CARTESIAN_POINT('',(0.037296127214376,0.,0.));
#539=CARTESIAN_POINT('',(0.04,0.,0.));
#540=CARTESIAN_POINT('',(0.04,0.,-0.0045));
#541=CARTESIAN_POINT('',(0.037296127214376,0.,8.67361737988404E-19));
#542=CARTESIAN_POINT('',(0.051148063607188,0.,0.));
#543=CARTESIAN_POINT('',(-0.00654107984155417,0.00497278454713523,-0.000178861431777477));
#544=CARTESIAN_POINT('',(0.,0.,0.02));
#545=CARTESIAN_POINT('',(0.,0.,0.02));
#546=CARTESIAN_POINT('',(0.03,0.,0.02));
#547=CARTESIAN_POINT('',(0.,0.,0.0475));
#548=CARTESIAN_POINT('',(-0.0025,0.,0.0475));
#549=CARTESIAN_POINT('',(-0.015,0.,0.));
#550=CARTESIAN_POINT('',(0.,0.,0.));
#551=CARTESIAN_POINT('',(-0.0025,0.,0.));
#552=CARTESIAN_POINT('',(0.,0.,0.));
#553=CARTESIAN_POINT('',(0.03,0.,0.));
#554=CARTESIAN_POINT('',(0.,0.,0.025));
#555=CARTESIAN_POINT('',(0.,0.,0.0992396537917455));
#556=CARTESIAN_POINT('',(0.137958920158446,0.00497278454713523,-0.000178861431777477));
#557=CARTESIAN_POINT('',(0.0542037930476362,0.,0.));
#558=CARTESIAN_POINT('',(0.,0.,0.));
#559=CARTESIAN_POINT('',(0.,0.,0.004));
#560=CARTESIAN_POINT('',(0.011,0.,0.));
#561=CARTESIAN_POINT('',(0.011,0.,0.004));
#562=CARTESIAN_POINT('',(0.011,0.,0.017));
#563=CARTESIAN_POINT('',(0.011,0.,0.));
#564=CARTESIAN_POINT('',(0.011,0.,0.03));
#565=CARTESIAN_POINT('',(0.0542037930476362,0.,0.));
#566=CARTESIAN_POINT('',(0.,0.,0.));
#567=CARTESIAN_POINT('',(0.,0.,0.03));
#568=CARTESIAN_POINT('',(1.7347234759768E-18,0.,0.017));
#569=CARTESIAN_POINT('',(0.249958920158446,0.00497278454713523,-0.000178861431777477));
#570=CARTESIAN_POINT('',(0.071,0.,0.00824740577237863));
#571=CARTESIAN_POINT('',(0.071,0.,0.));
#572=CARTESIAN_POINT('',(0.071,0.,0.0124948115447572));
#573=CARTESIAN_POINT('',(0.071,0.,0.));
#574=CARTESIAN_POINT('',(0.071,0.,0.004));
#575=CARTESIAN_POINT('',(0.0542037930476362,0.,0.));
#576=CARTESIAN_POINT('',(0.101,0.,0.));
#577=CARTESIAN_POINT('',(0.101,0.,0.004));
#578=CARTESIAN_POINT('',(0.101,0.,0.017));
#579=CARTESIAN_POINT('',(0.101,0.,0.));
#580=CARTESIAN_POINT('',(0.101,0.,0.03));
#581=CARTESIAN_POINT('',(0.0542037930476362,0.,0.));
#582=CARTESIAN_POINT('',(0.096,0.,0.));
#583=CARTESIAN_POINT('',(0.096,0.,0.03));
#584=CARTESIAN_POINT('',(0.071,0.,0.));
#585=CARTESIAN_POINT('',(0.105958920158446,0.00497278454713523,-0.000178861431777477));
#586=MECHANICAL_DESIGN_GEOMETRIC_PRESENTATION_REPRESENTATION('',(#307,#308,
#309,#310),#587);
#587=(
GEOMETRIC_REPRESENTATION_CONTEXT(3)
GLOBAL_UNCERTAINTY_ASSIGNED_CONTEXT((#592))
GLOBAL_UNIT_ASSIGNED_CONTEXT((#599,#598,#597))
REPRESENTATION_CONTEXT('Pi\X\E8ces \X\E0 usiner',
'TOP_LEVEL_ASSEMBLY_PART')
);
#588=(
GEOMETRIC_REPRESENTATION_CONTEXT(3)
GLOBAL_UNCERTAINTY_ASSIGNED_CONTEXT((#593))
GLOBAL_UNIT_ASSIGNED_CONTEXT((#599,#598,#597))
REPRESENTATION_CONTEXT('Part 1','COMPONENT_PART')
);
#589=(
GEOMETRIC_REPRESENTATION_CONTEXT(3)
GLOBAL_UNCERTAINTY_ASSIGNED_CONTEXT((#594))
GLOBAL_UNIT_ASSIGNED_CONTEXT((#599,#598,#597))
REPRESENTATION_CONTEXT('Part 1','COMPONENT_PART')
);
#590=(
GEOMETRIC_REPRESENTATION_CONTEXT(3)
GLOBAL_UNCERTAINTY_ASSIGNED_CONTEXT((#595))
GLOBAL_UNIT_ASSIGNED_CONTEXT((#599,#598,#597))
REPRESENTATION_CONTEXT('Part 1','COMPONENT_PART')
);
#591=(
GEOMETRIC_REPRESENTATION_CONTEXT(3)
GLOBAL_UNCERTAINTY_ASSIGNED_CONTEXT((#596))
GLOBAL_UNIT_ASSIGNED_CONTEXT((#599,#598,#597))
REPRESENTATION_CONTEXT('Part 3','COMPONENT_PART')
);
#592=UNCERTAINTY_MEASURE_WITH_UNIT(LENGTH_MEASURE(5.E-6),#599,
'DISTANCE_ACCURACY_VALUE','Maximum Tolerance applied to model');
#593=UNCERTAINTY_MEASURE_WITH_UNIT(LENGTH_MEASURE(5.E-6),#599,
'DISTANCE_ACCURACY_VALUE','Maximum Tolerance applied to model');
#594=UNCERTAINTY_MEASURE_WITH_UNIT(LENGTH_MEASURE(5.E-6),#599,
'DISTANCE_ACCURACY_VALUE','Maximum Tolerance applied to model');
#595=UNCERTAINTY_MEASURE_WITH_UNIT(LENGTH_MEASURE(5.E-6),#599,
'DISTANCE_ACCURACY_VALUE','Maximum Tolerance applied to model');
#596=UNCERTAINTY_MEASURE_WITH_UNIT(LENGTH_MEASURE(5.E-6),#599,
'DISTANCE_ACCURACY_VALUE','Maximum Tolerance applied to model');
#597=(
NAMED_UNIT(*)
SI_UNIT($,.STERADIAN.)
SOLID_ANGLE_UNIT()
);
#598=(
NAMED_UNIT(*)
PLANE_ANGLE_UNIT()
SI_UNIT($,.RADIAN.)
);
#599=(
LENGTH_UNIT()
NAMED_UNIT(*)
SI_UNIT($,.METRE.)
);
#600=PRODUCT_DEFINITION_SHAPE('','',#609);
#601=PRODUCT_DEFINITION_SHAPE('','',#610);
#602=PRODUCT_DEFINITION_SHAPE(' ','NAUO PRDDFN',#22);
#603=PRODUCT_DEFINITION_SHAPE('','',#611);
#604=PRODUCT_DEFINITION_SHAPE(' ','NAUO PRDDFN',#23);
#605=PRODUCT_DEFINITION_SHAPE('','',#612);
#606=PRODUCT_DEFINITION_SHAPE(' ','NAUO PRDDFN',#24);
#607=PRODUCT_DEFINITION_SHAPE('','',#613);
#608=PRODUCT_DEFINITION_SHAPE(' ','NAUO PRDDFN',#25);
#609=PRODUCT_DEFINITION('','',#619,#614);
#610=PRODUCT_DEFINITION('','',#620,#615);
#611=PRODUCT_DEFINITION('','',#621,#616);
#612=PRODUCT_DEFINITION('','',#622,#617);
#613=PRODUCT_DEFINITION('','',#623,#618);
#614=PRODUCT_DEFINITION_CONTEXT('',#645,'design');
#615=PRODUCT_DEFINITION_CONTEXT('',#645,'design');
#616=PRODUCT_DEFINITION_CONTEXT('',#645,'design');
#617=PRODUCT_DEFINITION_CONTEXT('',#645,'design');
#618=PRODUCT_DEFINITION_CONTEXT('',#645,'design');
#619=PRODUCT_DEFINITION_FORMATION_WITH_SPECIFIED_SOURCE('','',#629,
 .NOT_KNOWN.);
#620=PRODUCT_DEFINITION_FORMATION_WITH_SPECIFIED_SOURCE('','',#630,
 .NOT_KNOWN.);
#621=PRODUCT_DEFINITION_FORMATION_WITH_SPECIFIED_SOURCE('','',#631,
 .NOT_KNOWN.);
#622=PRODUCT_DEFINITION_FORMATION_WITH_SPECIFIED_SOURCE('','',#632,
 .NOT_KNOWN.);
#623=PRODUCT_DEFINITION_FORMATION_WITH_SPECIFIED_SOURCE('','',#633,
 .NOT_KNOWN.);
#624=PRODUCT_RELATED_PRODUCT_CATEGORY('','',(#629));
#625=PRODUCT_RELATED_PRODUCT_CATEGORY('','',(#630));
#626=PRODUCT_RELATED_PRODUCT_CATEGORY('','',(#631));
#627=PRODUCT_RELATED_PRODUCT_CATEGORY('','',(#632));
#628=PRODUCT_RELATED_PRODUCT_CATEGORY('','',(#633));
#629=PRODUCT('Pi\X\E8ces \X\E0 usiner','Pi\X\E8ces \X\E0 usiner',
'Pi\X\E8ces \X\E0 usiner',(#639));
#630=PRODUCT('Part 1','Part 1','Part 1',(#640));
#631=PRODUCT('Part 1','Part 1','Part 1',(#641));
#632=PRODUCT('Part 1','Part 1','Part 1',(#642));
#633=PRODUCT('Part 3','Part 3','Part 3',(#643));
#634=PRODUCT_CATEGORY('','');
#635=PRODUCT_CATEGORY('','');
#636=PRODUCT_CATEGORY('','');
#637=PRODUCT_CATEGORY('','');
#638=PRODUCT_CATEGORY('','');
#639=PRODUCT_CONTEXT('',#645,'mechanical');
#640=PRODUCT_CONTEXT('',#645,'mechanical');
#641=PRODUCT_CONTEXT('',#645,'mechanical');
#642=PRODUCT_CONTEXT('',#645,'mechanical');
#643=PRODUCT_CONTEXT('',#645,'mechanical');
#644=APPLICATION_PROTOCOL_DEFINITION('international standard',
'automotive_design',2010,#645);
#645=APPLICATION_CONTEXT(
'core data for automotive mechanical design processes');
ENDSEC;
END-ISO-10303-21;
