ISO-10303-21;
HEADER;
FILE_DESCRIPTION(('STEP AP214'),'1');
FILE_NAME('PIECE B.step','2020-09-05T07:48:21',(' '),(' '),'Spatial InterOp 3D',' ',' ');
FILE_SCHEMA(('automotive_design'));
ENDSEC;
DATA;
#1=MECHANICAL_DESIGN_GEOMETRIC_PRESENTATION_REPRESENTATION(' ',(#10,#11,#12,#13,#14,#15),#6);
#2=PRODUCT_DEFINITION_CONTEXT('',#16,'design');
#3=APPLICATION_PROTOCOL_DEFINITION('INTERNATIONAL STANDARD','automotive_design',1994,#16);
#4=PRODUCT_CATEGORY_RELATIONSHIP('NONE','NONE',#17,#18);
#5=SHAPE_DEFINITION_REPRESENTATION(#19,#20);
#6= (GEOMETRIC_REPRESENTATION_CONTEXT(3)GLOBAL_UNCERTAINTY_ASSIGNED_CONTEXT((#23))GLOBAL_UNIT_ASSIGNED_CONTEXT((#25,#26,#27))REPRESENTATION_CONTEXT('NONE','WORKSPACE'));
#10=STYLED_ITEM('',(#29),#30);
#11=STYLED_ITEM('',(#31),#32);
#12=STYLED_ITEM('',(#33),#34);
#13=STYLED_ITEM('',(#35),#36);
#14=STYLED_ITEM('',(#37),#38);
#15=STYLED_ITEM('',(#39),#40);
#16=APPLICATION_CONTEXT(' ');
#17=PRODUCT_CATEGORY('part','NONE');
#18=PRODUCT_RELATED_PRODUCT_CATEGORY('detail',' ',(#41));
#19=PRODUCT_DEFINITION_SHAPE('NONE','NONE',#42);
#20=ADVANCED_BREP_SHAPE_REPRESENTATION('_96',(#43,#44),#6);
#23=UNCERTAINTY_MEASURE_WITH_UNIT(LENGTH_MEASURE(0.001),#25,'','');
#25= (CONVERSION_BASED_UNIT('MILLIMETRE',#47)LENGTH_UNIT()NAMED_UNIT(#50));
#26= (NAMED_UNIT(#52)PLANE_ANGLE_UNIT()SI_UNIT($,.RADIAN.));
#27= (NAMED_UNIT(#52)SOLID_ANGLE_UNIT()SI_UNIT($,.STERADIAN.));
#29=PRESENTATION_STYLE_ASSIGNMENT((#58));
#30=ADVANCED_FACE('',(#59,#60),#61,.T.);
#31=PRESENTATION_STYLE_ASSIGNMENT((#62));
#32=ADVANCED_FACE('',(#63,#64),#65,.T.);
#33=PRESENTATION_STYLE_ASSIGNMENT((#66));
#34=ADVANCED_FACE('',(#67,#68),#69,.F.);
#35=PRESENTATION_STYLE_ASSIGNMENT((#70));
#36=ADVANCED_FACE('',(#71,#72),#73,.T.);
#37=PRESENTATION_STYLE_ASSIGNMENT((#74));
#38=ADVANCED_FACE('',(#75,#76),#77,.T.);
#39=PRESENTATION_STYLE_ASSIGNMENT((#78));
#40=ADVANCED_FACE('',(#79,#80),#81,.F.);
#41=PRODUCT('_96','_96','PART-_96-DESC',(#82));
#42=PRODUCT_DEFINITION('NONE','NONE',#83,#2);
#43=MANIFOLD_SOLID_BREP('_96',#84);
#44=AXIS2_PLACEMENT_3D('',#85,#86,#87);
#47=LENGTH_MEASURE_WITH_UNIT(LENGTH_MEASURE(1.0),#88);
#50=DIMENSIONAL_EXPONENTS(1.0,0.0,0.0,0.0,0.0,0.0,0.0);
#52=DIMENSIONAL_EXPONENTS(0.0,0.0,0.0,0.0,0.0,0.0,0.0);
#58=SURFACE_STYLE_USAGE(.BOTH.,#89);
#59=FACE_BOUND('',#90,.T.);
#60=FACE_OUTER_BOUND('',#91,.T.);
#61=PLANE('',#92);
#62=SURFACE_STYLE_USAGE(.BOTH.,#93);
#63=FACE_OUTER_BOUND('',#94,.T.);
#64=FACE_BOUND('',#95,.T.);
#65=PLANE('',#96);
#66=SURFACE_STYLE_USAGE(.BOTH.,#97);
#67=FACE_OUTER_BOUND('',#98,.T.);
#68=FACE_BOUND('',#99,.T.);
#69=CONICAL_SURFACE('',#100,0.4,0.52359877559831);
#70=SURFACE_STYLE_USAGE(.BOTH.,#101);
#71=FACE_OUTER_BOUND('',#102,.T.);
#72=FACE_OUTER_BOUND('',#103,.T.);
#73=CYLINDRICAL_SURFACE('',#104,0.75);
#74=SURFACE_STYLE_USAGE(.BOTH.,#105);
#75=FACE_OUTER_BOUND('',#106,.T.);
#76=FACE_OUTER_BOUND('',#107,.T.);
#77=CYLINDRICAL_SURFACE('',#108,0.55);
#78=SURFACE_STYLE_USAGE(.BOTH.,#109);
#79=FACE_OUTER_BOUND('',#110,.T.);
#80=FACE_OUTER_BOUND('',#111,.T.);
#81=CYLINDRICAL_SURFACE('',#112,0.4);
#82=PRODUCT_CONTEXT('',#16,'mechanical');
#83=PRODUCT_DEFINITION_FORMATION_WITH_SPECIFIED_SOURCE(' ','NONE',#41,.NOT_KNOWN.);
#84=CLOSED_SHELL('',(#34,#38,#32,#36,#30,#40));
#85=CARTESIAN_POINT('',(0.0,0.0,0.0));
#86=DIRECTION('',(0.0,0.0,1.0));
#87=DIRECTION('',(1.0,0.0,0.0));
#88= (NAMED_UNIT(#50)LENGTH_UNIT()SI_UNIT(.MILLI.,.METRE.));
#89=SURFACE_SIDE_STYLE('',(#114));
#90=EDGE_LOOP('',(#115));
#91=EDGE_LOOP('',(#116));
#92=AXIS2_PLACEMENT_3D('',#117,#118,#119);
#93=SURFACE_SIDE_STYLE('',(#120));
#94=EDGE_LOOP('',(#121));
#95=EDGE_LOOP('',(#122));
#96=AXIS2_PLACEMENT_3D('',#123,#124,#125);
#97=SURFACE_SIDE_STYLE('',(#126));
#98=EDGE_LOOP('',(#127));
#99=EDGE_LOOP('',(#128));
#100=AXIS2_PLACEMENT_3D('',#129,#130,#131);
#101=SURFACE_SIDE_STYLE('',(#132));
#102=EDGE_LOOP('',(#133));
#103=EDGE_LOOP('',(#134));
#104=AXIS2_PLACEMENT_3D('',#135,#136,#137);
#105=SURFACE_SIDE_STYLE('',(#138));
#106=EDGE_LOOP('',(#139));
#107=EDGE_LOOP('',(#140));
#108=AXIS2_PLACEMENT_3D('',#141,#142,#143);
#109=SURFACE_SIDE_STYLE('',(#144));
#110=EDGE_LOOP('',(#145));
#111=EDGE_LOOP('',(#146));
#112=AXIS2_PLACEMENT_3D('',#147,#148,#149);
#114=SURFACE_STYLE_FILL_AREA(#150);
#115=ORIENTED_EDGE('',*,*,#151,.T.);
#116=ORIENTED_EDGE('',*,*,#152,.F.);
#117=CARTESIAN_POINT('',(6.0,0.75,0.0));
#118=DIRECTION('',(1.0,0.0,0.0));
#119=DIRECTION('',(0.0,0.0,-1.0));
#120=SURFACE_STYLE_FILL_AREA(#153);
#121=ORIENTED_EDGE('',*,*,#154,.T.);
#122=ORIENTED_EDGE('',*,*,#155,.F.);
#123=CARTESIAN_POINT('',(3.5,0.55,0.0));
#124=DIRECTION('',(-1.0,0.0,0.0));
#125=DIRECTION('',(0.0,0.0,1.0));
#126=SURFACE_STYLE_FILL_AREA(#156);
#127=ORIENTED_EDGE('',*,*,#157,.T.);
#128=ORIENTED_EDGE('',*,*,#158,.F.);
#129=CARTESIAN_POINT('',(0.559807621135319,0.0,0.0));
#130=DIRECTION('',(-1.0,0.0,-0.0));
#131=DIRECTION('',(0.0,0.0,1.0));
#132=SURFACE_STYLE_FILL_AREA(#159);
#133=ORIENTED_EDGE('',*,*,#152,.T.);
#134=ORIENTED_EDGE('',*,*,#154,.F.);
#135=CARTESIAN_POINT('',(0.0,0.0,0.0));
#136=DIRECTION('',(-1.0,0.0,0.0));
#137=DIRECTION('',(0.0,0.0,1.0));
#138=SURFACE_STYLE_FILL_AREA(#160);
#139=ORIENTED_EDGE('',*,*,#155,.T.);
#140=ORIENTED_EDGE('',*,*,#157,.F.);
#141=CARTESIAN_POINT('',(0.0,0.0,0.0));
#142=DIRECTION('',(-1.0,0.0,0.0));
#143=DIRECTION('',(0.0,0.0,1.0));
#144=SURFACE_STYLE_FILL_AREA(#161);
#145=ORIENTED_EDGE('',*,*,#158,.T.);
#146=ORIENTED_EDGE('',*,*,#151,.F.);
#147=CARTESIAN_POINT('',(0.0,0.0,0.0));
#148=DIRECTION('',(-1.0,0.0,0.0));
#149=DIRECTION('',(0.0,0.0,1.0));
#150=FILL_AREA_STYLE('',(#162));
#151=EDGE_CURVE('',#163,#163,#164,.T.);
#152=EDGE_CURVE('',#165,#165,#166,.T.);
#153=FILL_AREA_STYLE('',(#167));
#154=EDGE_CURVE('',#168,#168,#169,.T.);
#155=EDGE_CURVE('',#170,#170,#171,.T.);
#156=FILL_AREA_STYLE('',(#172));
#157=EDGE_CURVE('',#173,#173,#174,.T.);
#158=EDGE_CURVE('',#175,#175,#176,.T.);
#159=FILL_AREA_STYLE('',(#177));
#160=FILL_AREA_STYLE('',(#178));
#161=FILL_AREA_STYLE('',(#179));
#162=FILL_AREA_STYLE_COLOUR('',#180);
#163=VERTEX_POINT('',#181);
#164=CIRCLE('',#182,0.4);
#165=VERTEX_POINT('',#183);
#166=CIRCLE('',#184,0.75);
#167=FILL_AREA_STYLE_COLOUR('',#185);
#168=VERTEX_POINT('',#186);
#169=CIRCLE('',#187,0.75);
#170=VERTEX_POINT('',#188);
#171=CIRCLE('',#189,0.55);
#172=FILL_AREA_STYLE_COLOUR('',#190);
#173=VERTEX_POINT('',#191);
#174=CIRCLE('',#192,0.55);
#175=VERTEX_POINT('',#193);
#176=CIRCLE('',#194,0.4);
#177=FILL_AREA_STYLE_COLOUR('',#195);
#178=FILL_AREA_STYLE_COLOUR('',#196);
#179=FILL_AREA_STYLE_COLOUR('',#197);
#180=COLOUR_RGB('',1.0,1.0,1.0);
#181=CARTESIAN_POINT('',(6.0,0.0,0.4));
#182=AXIS2_PLACEMENT_3D('',#198,#199,#200);
#183=CARTESIAN_POINT('',(6.0,0.0,0.75));
#184=AXIS2_PLACEMENT_3D('',#201,#202,#203);
#185=COLOUR_RGB('',1.0,1.0,1.0);
#186=CARTESIAN_POINT('',(3.5,0.0,0.75));
#187=AXIS2_PLACEMENT_3D('',#204,#205,#206);
#188=CARTESIAN_POINT('',(3.5,0.0,0.55));
#189=AXIS2_PLACEMENT_3D('',#207,#208,#209);
#190=COLOUR_RGB('',1.0,1.0,1.0);
#191=CARTESIAN_POINT('',(0.299999999999994,0.0,0.55));
#192=AXIS2_PLACEMENT_3D('',#210,#211,#212);
#193=CARTESIAN_POINT('',(0.559807621135319,0.0,0.4));
#194=AXIS2_PLACEMENT_3D('',#213,#214,#215);
#195=COLOUR_RGB('',1.0,1.0,1.0);
#196=COLOUR_RGB('',1.0,1.0,1.0);
#197=COLOUR_RGB('',1.0,1.0,1.0);
#198=CARTESIAN_POINT('',(6.0,0.0,0.0));
#199=DIRECTION('',(-1.0,0.0,0.0));
#200=DIRECTION('',(0.0,0.0,1.0));
#201=CARTESIAN_POINT('',(6.0,0.0,0.0));
#202=DIRECTION('',(-1.0,0.0,0.0));
#203=DIRECTION('',(0.0,0.0,1.0));
#204=CARTESIAN_POINT('',(3.5,0.0,0.0));
#205=DIRECTION('',(-1.0,0.0,0.0));
#206=DIRECTION('',(0.0,0.0,1.0));
#207=CARTESIAN_POINT('',(3.5,0.0,0.0));
#208=DIRECTION('',(-1.0,0.0,0.0));
#209=DIRECTION('',(0.0,0.0,1.0));
#210=CARTESIAN_POINT('',(0.299999999999994,0.0,0.0));
#211=DIRECTION('',(-1.0,0.0,0.0));
#212=DIRECTION('',(0.0,0.0,1.0));
#213=CARTESIAN_POINT('',(0.559807621135319,0.0,0.0));
#214=DIRECTION('',(-1.0,0.0,0.0));
#215=DIRECTION('',(0.0,0.0,1.0));
ENDSEC;
END-ISO-10303-21;
