ISO-10303-21;
HEADER;
FILE_DESCRIPTION (( 'STEP AP214' ),
    '1' );
FILE_NAME ('XW-USI-050-A-axe-glissière-BAC.STEP',
    '2020-09-18T12:23:17',
    ( '' ),
    ( '' ),
    'SwSTEP 2.0',
    'SolidWorks 2016',
    '' );
FILE_SCHEMA (( 'AUTOMOTIVE_DESIGN' ));
ENDSEC;

DATA;
#1 = FACE_OUTER_BOUND ( 'NONE', #367, .T. ) ;
#2 =( GEOMETRIC_REPRESENTATION_CONTEXT ( 3 ) GLOBAL_UNCERTAINTY_ASSIGNED_CONTEXT ( ( #192 ) ) GLOBAL_UNIT_ASSIGNED_CONTEXT ( ( #359, #274, #328 ) ) REPRESENTATION_CONTEXT ( 'NONE', 'WORKASPACE' ) );
#3 = ORIENTED_EDGE ( 'NONE', *, *, #384, .T. ) ;
#4 = MECHANICAL_DESIGN_GEOMETRIC_PRESENTATION_REPRESENTATION (  '', ( #263 ), #397 ) ;
#5 = DIRECTION ( 'NONE',  ( -0.0000000000000000000, -0.0000000000000000000, 1.000000000000000000 ) ) ;
#6 = COLOUR_RGB ( '',0.6509803921568627600, 0.6196078431372549200, 0.5882352941176470800 ) ;
#7 = ORIENTED_EDGE ( 'NONE', *, *, #323, .T. ) ;
#8 =( GEOMETRIC_REPRESENTATION_CONTEXT ( 3 ) GLOBAL_UNCERTAINTY_ASSIGNED_CONTEXT ( ( #66 ) ) GLOBAL_UNIT_ASSIGNED_CONTEXT ( ( #108, #319, #288 ) ) REPRESENTATION_CONTEXT ( 'NONE', 'WORKASPACE' ) );
#9 = CARTESIAN_POINT ( 'NONE',  ( 0.0000000000000000000, 0.0000000000000000000, -28.50000000000000400 ) ) ;
#10 = EDGE_CURVE ( 'NONE', #250, #321, #89, .T. ) ;
#11 = DIRECTION ( 'NONE',  ( 0.0000000000000000000, 0.0000000000000000000, 1.000000000000000000 ) ) ;
#12 = MANIFOLD_SOLID_BREP ( 'Symétrie1', #313 ) ;
#13 = FACE_OUTER_BOUND ( 'NONE', #169, .T. ) ;
#14 = CARTESIAN_POINT ( 'NONE',  ( 0.0000000000000000000, 0.0000000000000000000, 42.50000000000000000 ) ) ;
#15 = ORIENTED_EDGE ( 'NONE', *, *, #194, .F. ) ;
#16 = CARTESIAN_POINT ( 'NONE',  ( -4.000000000000000000, 0.0000000000000000000, -42.50000000000000000 ) ) ;
#17 = CARTESIAN_POINT ( 'NONE',  ( 0.0000000000000000000, 0.0000000000000000000, -42.50000000000000000 ) ) ;
#18 = AXIS2_PLACEMENT_3D ( 'NONE', #351, #71, #211 ) ;
#19 = CIRCLE ( 'NONE', #18, 4.000000000000000000 ) ;
#20 = EDGE_LOOP ( 'NONE', ( #95, #61, #357, #340 ) ) ;
#21 = CARTESIAN_POINT ( 'NONE',  ( -2.099999999999987200, 2.571758278209426200E-016, 28.50000000000000400 ) ) ;
#22 = DIRECTION ( 'NONE',  ( -0.0000000000000000000, -0.0000000000000000000, -1.000000000000000000 ) ) ;
#23 = FACE_OUTER_BOUND ( 'NONE', #380, .T. ) ;
#24 = DIRECTION ( 'NONE',  ( -1.000000000000000000, 0.0000000000000000000, 0.0000000000000000000 ) ) ;
#25 = UNCERTAINTY_MEASURE_WITH_UNIT (LENGTH_MEASURE( 1.000000000000000100E-005 ), #377, 'distance_accuracy_value', 'NONE');
#26 = ADVANCED_FACE ( 'NONE', ( #404, #182 ), #325, .F. ) ;
#27 = AXIS2_PLACEMENT_3D ( 'NONE', #271, #185, #300 ) ;
#28 = AXIS2_PLACEMENT_3D ( 'NONE', #284, #312, #311 ) ;
#29 = FILL_AREA_STYLE ('',( #100 ) ) ;
#30 = ADVANCED_FACE ( 'NONE', ( #167, #199 ), #270, .T. ) ;
#31 = FACE_OUTER_BOUND ( 'NONE', #163, .T. ) ;
#32 = DIRECTION ( 'NONE',  ( 1.000000000000000000, 0.0000000000000000000, 0.0000000000000000000 ) ) ;
#33 = ORIENTED_EDGE ( 'NONE', *, *, #327, .T. ) ;
#34 = ORIENTED_EDGE ( 'NONE', *, *, #168, .T. ) ;
#35 = EDGE_CURVE ( 'NONE', #321, #250, #69, .T. ) ;
#36 = VERTEX_POINT ( 'NONE', #239 ) ;
#37 = DIRECTION ( 'NONE',  ( 1.000000000000000000, 0.0000000000000000000, -0.0000000000000000000 ) ) ;
#38 = LINE ( 'NONE', #86, #215 ) ;
#39 = CARTESIAN_POINT ( 'NONE',  ( -2.099999999999989000, 0.0000000000000000000, -42.50000000000000000 ) ) ;
#40 = ORIENTED_EDGE ( 'NONE', *, *, #283, .T. ) ;
#41 = AXIS2_PLACEMENT_3D ( 'NONE', #307, #330, #388 ) ;
#42 = CARTESIAN_POINT ( 'NONE',  ( 0.0000000000000000000, 0.0000000000000000000, -42.50000000000000000 ) ) ;
#43 = CARTESIAN_POINT ( 'NONE',  ( 0.0000000000000000000, 0.0000000000000000000, 42.50000000000000000 ) ) ;
#44 = DIRECTION ( 'NONE',  ( -1.000000000000000000, 0.0000000000000000000, 0.0000000000000000000 ) ) ;
#45 = COLOUR_RGB ( '',0.6509803921568627600, 0.6196078431372549200, 0.5882352941176470800 ) ;
#46 = EDGE_LOOP ( 'NONE', ( #216, #33, #310 ) ) ;
#47 = CARTESIAN_POINT ( 'NONE',  ( -2.099999999999989000, 2.571758278209428600E-016, 42.50000000000000000 ) ) ;
#48 = DIRECTION ( 'NONE',  ( -0.0000000000000000000, -0.0000000000000000000, 1.000000000000000000 ) ) ;
#49 = AXIS2_PLACEMENT_3D ( 'NONE', #217, #298, #37 ) ;
#50 = DIRECTION ( 'NONE',  ( -0.0000000000000000000, -0.0000000000000000000, -1.000000000000000000 ) ) ;
#51 = AXIS2_PLACEMENT_3D ( 'NONE', #363, #11, #87 ) ;
#52 = DIRECTION ( 'NONE',  ( -1.000000000000000000, 0.0000000000000000000, 0.0000000000000000000 ) ) ;
#53 = ORIENTED_EDGE ( 'NONE', *, *, #121, .F. ) ;
#54 = DIRECTION ( 'NONE',  ( -1.000000000000000000, 0.0000000000000000000, 0.0000000000000000000 ) ) ;
#55 = DIRECTION ( 'NONE',  ( -0.0000000000000000000, -0.0000000000000000000, -1.000000000000000000 ) ) ;
#56 =( NAMED_UNIT ( * ) SI_UNIT ( $, .STERADIAN. ) SOLID_ANGLE_UNIT ( ) );
#57 = MECHANICAL_DESIGN_GEOMETRIC_PRESENTATION_REPRESENTATION (  '', ( #178 ), #93 ) ;
#58 = FACE_OUTER_BOUND ( 'NONE', #59, .T. ) ;
#59 = EDGE_LOOP ( 'NONE', ( #208, #183, #347 ) ) ;
#60 = SURFACE_SIDE_STYLE ('',( #278 ) ) ;
#61 = ORIENTED_EDGE ( 'NONE', *, *, #10, .F. ) ;
#62 = ADVANCED_FACE ( 'NONE', ( #230 ), #133, .F. ) ;
#63 = MECHANICAL_DESIGN_GEOMETRIC_PRESENTATION_REPRESENTATION (  '', ( #244 ), #2 ) ;
#64 = DIRECTION ( 'NONE',  ( -1.000000000000000000, 0.0000000000000000000, 0.0000000000000000000 ) ) ;
#65 = AXIS2_PLACEMENT_3D ( 'NONE', #201, #204, #202 ) ;
#66 = UNCERTAINTY_MEASURE_WITH_UNIT (LENGTH_MEASURE( 1.000000000000000100E-005 ), #108, 'distance_accuracy_value', 'NONE');
#67 = APPLICATION_CONTEXT ( 'automotive_design' ) ;
#68 = CARTESIAN_POINT ( 'NONE',  ( 2.099999999999989000, 2.571758278209428600E-016, -42.50000000000000000 ) ) ;
#69 = CIRCLE ( 'NONE', #27, 2.099999999999987200 ) ;
#70 = ORIENTED_EDGE ( 'NONE', *, *, #96, .T. ) ;
#71 = DIRECTION ( 'NONE',  ( 0.0000000000000000000, 0.0000000000000000000, 1.000000000000000000 ) ) ;
#72 = AXIS2_PLACEMENT_3D ( 'NONE', #262, #105, #170 ) ;
#73 = EDGE_CURVE ( 'NONE', #227, #114, #296, .T. ) ;
#74 = LINE ( 'NONE', #399, #308 ) ;
#75 = VERTEX_POINT ( 'NONE', #81 ) ;
#76 = VERTEX_POINT ( 'NONE', #39 ) ;
#77 = COLOUR_RGB ( '',0.6509803921568627600, 0.6196078431372549200, 0.5882352941176470800 ) ;
#78 = AXIS2_PLACEMENT_3D ( 'NONE', #141, #5, #145 ) ;
#79 = AXIS2_PLACEMENT_3D ( 'NONE', #198, #162, #281 ) ;
#80 = ORIENTED_EDGE ( 'NONE', *, *, #110, .T. ) ;
#81 = CARTESIAN_POINT ( 'NONE',  ( -3.738064691819423800E-015, 0.0000000000000000000, 27.23819270004213800 ) ) ;
#82 = CYLINDRICAL_SURFACE ( 'NONE', #171, 2.099999999999988100 ) ;
#83 = ORIENTED_EDGE ( 'NONE', *, *, #73, .F. ) ;
#84 = AXIS2_PLACEMENT_3D ( 'NONE', #159, #55, #64 ) ;
#85 = DIRECTION ( 'NONE',  ( -0.0000000000000000000, -0.0000000000000000000, -1.000000000000000000 ) ) ;
#86 = CARTESIAN_POINT ( 'NONE',  ( -2.099999999999988100, 0.0000000000000000000, -42.50000000000000000 ) ) ;
#87 = DIRECTION ( 'NONE',  ( 1.000000000000000000, 0.0000000000000000000, 0.0000000000000000000 ) ) ;
#88 = VECTOR ( 'NONE', #156, 1000.000000000000000 ) ;
#89 = CIRCLE ( 'NONE', #143, 2.099999999999987200 ) ;
#90 = DIRECTION ( 'NONE',  ( -1.000000000000000000, 0.0000000000000000000, 0.0000000000000000000 ) ) ;
#91 = CARTESIAN_POINT ( 'NONE',  ( 2.099999999999987200, 2.571758278209426200E-016, -28.50000000000000400 ) ) ;
#92 = FILL_AREA_STYLE ('',( #395 ) ) ;
#93 =( GEOMETRIC_REPRESENTATION_CONTEXT ( 3 ) GLOBAL_UNCERTAINTY_ASSIGNED_CONTEXT ( ( #299 ) ) GLOBAL_UNIT_ASSIGNED_CONTEXT ( ( #320, #295, #234 ) ) REPRESENTATION_CONTEXT ( 'NONE', 'WORKASPACE' ) );
#94 = SURFACE_STYLE_USAGE ( .BOTH. , #60 ) ;
#95 = ORIENTED_EDGE ( 'NONE', *, *, #139, .F. ) ;
#96 = EDGE_CURVE ( 'NONE', #114, #227, #106, .T. ) ;
#97 = CARTESIAN_POINT ( 'NONE',  ( 2.099999999999987200, 0.0000000000000000000, 28.50000000000000400 ) ) ;
#98 = PRODUCT_DEFINITION_CONTEXT ( 'detailed design', #172, 'design' ) ;
#99 = CARTESIAN_POINT ( 'NONE',  ( -4.000000000000000000, 0.0000000000000000000, 42.50000000000000000 ) ) ;
#100 = FILL_AREA_STYLE_COLOUR ( '', #45 ) ;
#101 = VECTOR ( 'NONE', #314, 1000.000000000000000 ) ;
#102 = ADVANCED_FACE ( 'NONE', ( #1 ), #403, .F. ) ;
#103 = LINE ( 'NONE', #187, #334 ) ;
#104 = STYLED_ITEM ( 'NONE', ( #379 ), #286 ) ;
#105 = DIRECTION ( 'NONE',  ( -0.0000000000000000000, -0.0000000000000000000, 1.000000000000000000 ) ) ;
#106 = CIRCLE ( 'NONE', #272, 2.099999999999989000 ) ;
#107 = ORIENTED_EDGE ( 'NONE', *, *, #236, .F. ) ;
#108 =( LENGTH_UNIT ( ) NAMED_UNIT ( * ) SI_UNIT ( .MILLI., .METRE. ) );
#109 = AXIS2_PLACEMENT_3D ( 'NONE', #360, #48, #151 ) ;
#110 = EDGE_CURVE ( 'NONE', #177, #200, #362, .T. ) ;
#111 = UNCERTAINTY_MEASURE_WITH_UNIT (LENGTH_MEASURE( 1.000000000000000100E-005 ), #252, 'distance_accuracy_value', 'NONE');
#112 = FILL_AREA_STYLE ('',( #115 ) ) ;
#113 =( GEOMETRIC_REPRESENTATION_CONTEXT ( 3 ) GLOBAL_UNCERTAINTY_ASSIGNED_CONTEXT ( ( #111 ) ) GLOBAL_UNIT_ASSIGNED_CONTEXT ( ( #252, #128, #373 ) ) REPRESENTATION_CONTEXT ( 'NONE', 'WORKASPACE' ) );
#114 = VERTEX_POINT ( 'NONE', #144 ) ;
#115 = FILL_AREA_STYLE_COLOUR ( '', #293 ) ;
#116 = FACE_OUTER_BOUND ( 'NONE', #122, .T. ) ;
#117 = CARTESIAN_POINT ( 'NONE',  ( 0.0000000000000000000, 0.0000000000000000000, -28.50000000000000400 ) ) ;
#118 = FILL_AREA_STYLE_COLOUR ( '', #6 ) ;
#119 = PRESENTATION_LAYER_ASSIGNMENT (  '', '', ( #104 ) ) ;
#120 = DIRECTION ( 'NONE',  ( 0.0000000000000000000, 0.0000000000000000000, 1.000000000000000000 ) ) ;
#121 = EDGE_CURVE ( 'NONE', #335, #200, #309, .T. ) ;
#122 = EDGE_LOOP ( 'NONE', ( #53, #374, #292, #80 ) ) ;
#123 = SURFACE_SIDE_STYLE ('',( #304 ) ) ;
#124 = CARTESIAN_POINT ( 'NONE',  ( -2.099999999999988100, 2.571758278209427700E-016, 42.50000000000000000 ) ) ;
#125 = MECHANICAL_DESIGN_GEOMETRIC_PRESENTATION_REPRESENTATION (  '', ( #378 ), #223 ) ;
#126 = CARTESIAN_POINT ( 'NONE',  ( -2.099999999999987200, 0.0000000000000000000, -28.50000000000000400 ) ) ;
#127 = VECTOR ( 'NONE', #394, 1000.000000000000000 ) ;
#128 =( NAMED_UNIT ( * ) PLANE_ANGLE_UNIT ( ) SI_UNIT ( $, .RADIAN. ) );
#129 = MECHANICAL_DESIGN_GEOMETRIC_PRESENTATION_REPRESENTATION (  '', ( #104 ), #113 ) ;
#130 = SURFACE_SIDE_STYLE ('',( #402 ) ) ;
#131 = PRODUCT ( 'XW-USI-050-A-axe-glissière-BAC', 'XW-USI-050-A-axe-glissière-BAC', '', ( #261 ) ) ;
#132 =( NAMED_UNIT ( * ) SI_UNIT ( $, .STERADIAN. ) SOLID_ANGLE_UNIT ( ) );
#133 = CONICAL_SURFACE ( 'NONE', #78, 2.099999999999987200, 1.029744258676654100 ) ;
#134 = ORIENTED_EDGE ( 'NONE', *, *, #179, .F. ) ;
#135 = PRESENTATION_LAYER_ASSIGNMENT (  '', '', ( #140 ) ) ;
#136 = CYLINDRICAL_SURFACE ( 'NONE', #186, 2.099999999999988100 ) ;
#137 = COLOUR_RGB ( '',0.6509803921568627600, 0.6196078431372549200, 0.5882352941176470800 ) ;
#138 = EDGE_LOOP ( 'NONE', ( #391, #83 ) ) ;
#139 = EDGE_CURVE ( 'NONE', #321, #386, #103, .T. ) ;
#140 = STYLED_ITEM ( 'NONE', ( #153 ), #345 ) ;
#141 = CARTESIAN_POINT ( 'NONE',  ( 0.0000000000000000000, 0.0000000000000000000, 28.50000000000000400 ) ) ;
#142 = EDGE_LOOP ( 'NONE', ( #324, #134 ) ) ;
#143 = AXIS2_PLACEMENT_3D ( 'NONE', #9, #240, #184 ) ;
#144 = CARTESIAN_POINT ( 'NONE',  ( 2.099999999999989000, 0.0000000000000000000, 42.50000000000000000 ) ) ;
#145 = DIRECTION ( 'NONE',  ( 1.000000000000000000, 0.0000000000000000000, 0.0000000000000000000 ) ) ;
#146 = VECTOR ( 'NONE', #285, 1000.000000000000000 ) ;
#147 = PRODUCT_DEFINITION_FORMATION_WITH_SPECIFIED_SOURCE ( 'ANY', '', #131, .NOT_KNOWN. ) ;
#148 = ORIENTED_EDGE ( 'NONE', *, *, #212, .F. ) ;
#149 = SURFACE_SIDE_STYLE ('',( #268 ) ) ;
#150 = PRODUCT_DEFINITION_SHAPE ( 'NONE', 'NONE',  #303 ) ;
#151 = DIRECTION ( 'NONE',  ( 1.000000000000000000, 0.0000000000000000000, 0.0000000000000000000 ) ) ;
#152 = MECHANICAL_DESIGN_GEOMETRIC_PRESENTATION_REPRESENTATION (  '', ( #140 ), #326 ) ;
#153 = PRESENTATION_STYLE_ASSIGNMENT (( #164 ) ) ;
#154 = CARTESIAN_POINT ( 'NONE',  ( -3.738064691819423800E-015, 0.0000000000000000000, -27.23819270004213800 ) ) ;
#155 = ORIENTED_EDGE ( 'NONE', *, *, #225, .T. ) ;
#156 = DIRECTION ( 'NONE',  ( -0.0000000000000000000, -0.0000000000000000000, 1.000000000000000000 ) ) ;
#157 = DIRECTION ( 'NONE',  ( -1.000000000000000000, 0.0000000000000000000, 0.0000000000000000000 ) ) ;
#158 = AXIS2_PLACEMENT_3D ( 'NONE', #256, #401, #54 ) ;
#159 = CARTESIAN_POINT ( 'NONE',  ( 0.0000000000000000000, 0.0000000000000000000, -28.50000000000000400 ) ) ;
#160 = LINE ( 'NONE', #126, #181 ) ;
#161 = EDGE_CURVE ( 'NONE', #335, #350, #372, .T. ) ;
#162 = DIRECTION ( 'NONE',  ( -0.0000000000000000000, -0.0000000000000000000, -1.000000000000000000 ) ) ;
#163 = EDGE_LOOP ( 'NONE', ( #235, #221, #176, #233 ) ) ;
#164 = SURFACE_STYLE_USAGE ( .BOTH. , #123 ) ;
#165 = ADVANCED_FACE ( 'NONE', ( #23 ), #390, .F. ) ;
#166 = CARTESIAN_POINT ( 'NONE',  ( 0.0000000000000000000, 0.0000000000000000000, -42.50000000000000000 ) ) ;
#167 = FACE_BOUND ( 'NONE', #138, .T. ) ;
#168 = EDGE_CURVE ( 'NONE', #238, #114, #365, .T. ) ;
#169 = EDGE_LOOP ( 'NONE', ( #275, #358, #34, #70 ) ) ;
#170 = DIRECTION ( 'NONE',  ( 1.000000000000000000, 0.0000000000000000000, 0.0000000000000000000 ) ) ;
#171 = AXIS2_PLACEMENT_3D ( 'NONE', #228, #22, #157 ) ;
#172 = APPLICATION_CONTEXT ( 'automotive_design' ) ;
#173 = UNCERTAINTY_MEASURE_WITH_UNIT (LENGTH_MEASURE( 1.000000000000000100E-005 ), #224, 'distance_accuracy_value', 'NONE');
#174 = CIRCLE ( 'NONE', #196, 2.099999999999987200 ) ;
#175 = APPLICATION_PROTOCOL_DEFINITION ( 'draft international standard', 'automotive_design', 1998, #172 ) ;
#176 = ORIENTED_EDGE ( 'NONE', *, *, #179, .T. ) ;
#177 = VERTEX_POINT ( 'NONE', #16 ) ;
#178 = STYLED_ITEM ( 'NONE', ( #339 ), #336 ) ;
#179 = EDGE_CURVE ( 'NONE', #200, #177, #291, .T. ) ;
#180 = PRESENTATION_LAYER_ASSIGNMENT (  '', '', ( #263 ) ) ;
#181 = VECTOR ( 'NONE', #341, 1000.000000000000000 ) ;
#182 = FACE_OUTER_BOUND ( 'NONE', #142, .T. ) ;
#183 = ORIENTED_EDGE ( 'NONE', *, *, #369, .T. ) ;
#184 = DIRECTION ( 'NONE',  ( -1.000000000000000000, 0.0000000000000000000, 0.0000000000000000000 ) ) ;
#185 = DIRECTION ( 'NONE',  ( -0.0000000000000000000, -0.0000000000000000000, -1.000000000000000000 ) ) ;
#186 = AXIS2_PLACEMENT_3D ( 'NONE', #166, #368, #24 ) ;
#187 = CARTESIAN_POINT ( 'NONE',  ( 2.099999999999988100, 2.571758278209427700E-016, -42.50000000000000000 ) ) ;
#188 = ORIENTED_EDGE ( 'NONE', *, *, #73, .T. ) ;
#189 =( LENGTH_UNIT ( ) NAMED_UNIT ( * ) SI_UNIT ( .MILLI., .METRE. ) );
#190 = CYLINDRICAL_SURFACE ( 'NONE', #65, 2.099999999999988100 ) ;
#191 = VECTOR ( 'NONE', #305, 1000.000000000000000 ) ;
#192 = UNCERTAINTY_MEASURE_WITH_UNIT (LENGTH_MEASURE( 1.000000000000000100E-005 ), #359, 'distance_accuracy_value', 'NONE');
#193 = FILL_AREA_STYLE ('',( #118 ) ) ;
#194 = EDGE_CURVE ( 'NONE', #250, #76, #38, .T. ) ;
#195 = DIRECTION ( 'NONE',  ( -0.0000000000000000000, -0.0000000000000000000, 1.000000000000000000 ) ) ;
#196 = AXIS2_PLACEMENT_3D ( 'NONE', #376, #348, #259 ) ;
#197 = DIRECTION ( 'NONE',  ( 0.8571673007021121100, 1.049727191138618400E-016, -0.5150380749100544900 ) ) ;
#198 = CARTESIAN_POINT ( 'NONE',  ( 0.0000000000000000000, 0.0000000000000000000, 42.50000000000000000 ) ) ;
#199 = FACE_OUTER_BOUND ( 'NONE', #302, .T. ) ;
#200 = VERTEX_POINT ( 'NONE', #219 ) ;
#201 = CARTESIAN_POINT ( 'NONE',  ( 0.0000000000000000000, 0.0000000000000000000, 42.50000000000000000 ) ) ;
#202 = DIRECTION ( 'NONE',  ( 1.000000000000000000, 0.0000000000000000000, 0.0000000000000000000 ) ) ;
#203 = ADVANCED_FACE ( 'NONE', ( #31 ), #207, .T. ) ;
#204 = DIRECTION ( 'NONE',  ( -0.0000000000000000000, -0.0000000000000000000, 1.000000000000000000 ) ) ;
#205 = DIRECTION ( 'NONE',  ( 0.0000000000000000000, 0.0000000000000000000, 1.000000000000000000 ) ) ;
#206 = FILL_AREA_STYLE_COLOUR ( '', #266 ) ;
#207 = CYLINDRICAL_SURFACE ( 'NONE', #406, 4.000000000000000000 ) ;
#208 = ORIENTED_EDGE ( 'NONE', *, *, #327, .F. ) ;
#209 = SURFACE_STYLE_USAGE ( .BOTH. , #130 ) ;
#210 = AXIS2_PLACEMENT_3D ( 'NONE', #43, #276, #364 ) ;
#211 = DIRECTION ( 'NONE',  ( 1.000000000000000000, 0.0000000000000000000, 0.0000000000000000000 ) ) ;
#212 = EDGE_CURVE ( 'NONE', #76, #386, #213, .T. ) ;
#213 = CIRCLE ( 'NONE', #241, 2.099999999999989000 ) ;
#214 = DIRECTION ( 'NONE',  ( 0.0000000000000000000, 0.0000000000000000000, 1.000000000000000000 ) ) ;
#215 = VECTOR ( 'NONE', #220, 1000.000000000000000 ) ;
#216 = ORIENTED_EDGE ( 'NONE', *, *, #369, .F. ) ;
#217 = CARTESIAN_POINT ( 'NONE',  ( 0.0000000000000000000, 0.0000000000000000000, 42.50000000000000000 ) ) ;
#218 = CYLINDRICAL_SURFACE ( 'NONE', #79, 4.000000000000000000 ) ;
#219 = CARTESIAN_POINT ( 'NONE',  ( 4.000000000000000000, 4.898587196589412800E-016, -42.50000000000000000 ) ) ;
#220 = DIRECTION ( 'NONE',  ( -0.0000000000000000000, -0.0000000000000000000, -1.000000000000000000 ) ) ;
#221 = ORIENTED_EDGE ( 'NONE', *, *, #121, .T. ) ;
#222 = CARTESIAN_POINT ( 'NONE',  ( 2.099999999999988100, 0.0000000000000000000, 42.50000000000000000 ) ) ;
#223 =( GEOMETRIC_REPRESENTATION_CONTEXT ( 3 ) GLOBAL_UNCERTAINTY_ASSIGNED_CONTEXT ( ( #352 ) ) GLOBAL_UNIT_ASSIGNED_CONTEXT ( ( #189, #246, #279 ) ) REPRESENTATION_CONTEXT ( 'NONE', 'WORKASPACE' ) );
#224 =( LENGTH_UNIT ( ) NAMED_UNIT ( * ) SI_UNIT ( .MILLI., .METRE. ) );
#225 = EDGE_CURVE ( 'NONE', #255, #321, #356, .T. ) ;
#226 = LINE ( 'NONE', #124, #127 ) ;
#227 = VERTEX_POINT ( 'NONE', #47 ) ;
#228 = CARTESIAN_POINT ( 'NONE',  ( 0.0000000000000000000, 0.0000000000000000000, -42.50000000000000000 ) ) ;
#229 = LINE ( 'NONE', #99, #101 ) ;
#230 = FACE_OUTER_BOUND ( 'NONE', #46, .T. ) ;
#231 = SURFACE_STYLE_USAGE ( .BOTH. , #289 ) ;
#232 = PRODUCT_RELATED_PRODUCT_CATEGORY ( 'part', '', ( #131 ) ) ;
#233 = ORIENTED_EDGE ( 'NONE', *, *, #332, .F. ) ;
#234 =( NAMED_UNIT ( * ) SI_UNIT ( $, .STERADIAN. ) SOLID_ANGLE_UNIT ( ) );
#235 = ORIENTED_EDGE ( 'NONE', *, *, #161, .F. ) ;
#236 = EDGE_CURVE ( 'NONE', #255, #250, #160, .T. ) ;
#237 = DIRECTION ( 'NONE',  ( 1.000000000000000000, 0.0000000000000000000, -0.0000000000000000000 ) ) ;
#238 = VERTEX_POINT ( 'NONE', #97 ) ;
#239 = CARTESIAN_POINT ( 'NONE',  ( -2.099999999999987200, 2.571758278209426200E-016, 28.50000000000000400 ) ) ;
#240 = DIRECTION ( 'NONE',  ( -0.0000000000000000000, -0.0000000000000000000, -1.000000000000000000 ) ) ;
#241 = AXIS2_PLACEMENT_3D ( 'NONE', #392, #251, #52 ) ;
#242 = LINE ( 'NONE', #21, #146 ) ;
#243 = ORIENTED_EDGE ( 'NONE', *, *, #283, .F. ) ;
#244 = STYLED_ITEM ( 'NONE', ( #249 ), #12 ) ;
#245 = ORIENTED_EDGE ( 'NONE', *, *, #381, .F. ) ;
#246 =( NAMED_UNIT ( * ) PLANE_ANGLE_UNIT ( ) SI_UNIT ( $, .RADIAN. ) );
#247 = CARTESIAN_POINT ( 'NONE',  ( 0.0000000000000000000, 0.0000000000000000000, 42.50000000000000000 ) ) ;
#248 = DIRECTION ( 'NONE',  ( 1.000000000000000000, 0.0000000000000000000, 0.0000000000000000000 ) ) ;
#249 = PRESENTATION_STYLE_ASSIGNMENT (( #354 ) ) ;
#250 = VERTEX_POINT ( 'NONE', #315 ) ;
#251 = DIRECTION ( 'NONE',  ( -0.0000000000000000000, -0.0000000000000000000, -1.000000000000000000 ) ) ;
#252 =( LENGTH_UNIT ( ) NAMED_UNIT ( * ) SI_UNIT ( .MILLI., .METRE. ) );
#253 = FACE_OUTER_BOUND ( 'NONE', #20, .T. ) ;
#254 = ORIENTED_EDGE ( 'NONE', *, *, #10, .T. ) ;
#255 = VERTEX_POINT ( 'NONE', #154 ) ;
#256 = CARTESIAN_POINT ( 'NONE',  ( 0.0000000000000000000, 0.0000000000000000000, -42.50000000000000000 ) ) ;
#257 = CARTESIAN_POINT ( 'NONE',  ( -4.000000000000000000, 0.0000000000000000000, 42.50000000000000000 ) ) ;
#258 = SURFACE_STYLE_FILL_AREA ( #112 ) ;
#259 = DIRECTION ( 'NONE',  ( 1.000000000000000000, 0.0000000000000000000, 0.0000000000000000000 ) ) ;
#260 = APPLICATION_PROTOCOL_DEFINITION ( 'draft international standard', 'automotive_design', 1998, #67 ) ;
#261 = PRODUCT_CONTEXT ( 'NONE', #67, 'mechanical' ) ;
#262 = CARTESIAN_POINT ( 'NONE',  ( 0.0000000000000000000, 0.0000000000000000000, 28.50000000000000400 ) ) ;
#263 = STYLED_ITEM ( 'NONE', ( #371 ), #375 ) ;
#264 = ORIENTED_EDGE ( 'NONE', *, *, #35, .F. ) ;
#265 = PRESENTATION_LAYER_ASSIGNMENT (  '', '', ( #244 ) ) ;
#266 = COLOUR_RGB ( '',0.6509803921568627600, 0.6196078431372549200, 0.5882352941176470800 ) ;
#267 = CONICAL_SURFACE ( 'NONE', #84, 2.099999999999987200, 1.029744258676654100 ) ;
#268 = SURFACE_STYLE_FILL_AREA ( #193 ) ;
#269 = ORIENTED_EDGE ( 'NONE', *, *, #139, .T. ) ;
#270 = PLANE ( 'NONE',  #49 ) ;
#271 = CARTESIAN_POINT ( 'NONE',  ( 0.0000000000000000000, 0.0000000000000000000, -28.50000000000000400 ) ) ;
#272 = AXIS2_PLACEMENT_3D ( 'NONE', #247, #195, #393 ) ;
#273 = VECTOR ( 'NONE', #197, 1000.000000000000000 ) ;
#274 =( NAMED_UNIT ( * ) PLANE_ANGLE_UNIT ( ) SI_UNIT ( $, .RADIAN. ) );
#275 = ORIENTED_EDGE ( 'NONE', *, *, #323, .F. ) ;
#276 = DIRECTION ( 'NONE',  ( -0.0000000000000000000, -0.0000000000000000000, 1.000000000000000000 ) ) ;
#277 = SHAPE_DEFINITION_REPRESENTATION ( #150, #336 ) ;
#278 = SURFACE_STYLE_FILL_AREA ( #343 ) ;
#279 =( NAMED_UNIT ( * ) SI_UNIT ( $, .STERADIAN. ) SOLID_ANGLE_UNIT ( ) );
#280 = ORIENTED_EDGE ( 'NONE', *, *, #236, .T. ) ;
#281 = DIRECTION ( 'NONE',  ( -1.000000000000000000, 0.0000000000000000000, 0.0000000000000000000 ) ) ;
#282 =( NAMED_UNIT ( * ) PLANE_ANGLE_UNIT ( ) SI_UNIT ( $, .RADIAN. ) );
#283 = EDGE_CURVE ( 'NONE', #386, #76, #361, .T. ) ;
#284 = CARTESIAN_POINT ( 'NONE',  ( 0.0000000000000000000, 0.0000000000000000000, 28.50000000000000400 ) ) ;
#285 = DIRECTION ( 'NONE',  ( -0.8571673007021121100, 1.049727191138618400E-016, 0.5150380749100544900 ) ) ;
#286 = ADVANCED_FACE ( 'NONE', ( #13 ), #190, .F. ) ;
#287 = ADVANCED_FACE ( 'NONE', ( #58 ), #317, .F. ) ;
#288 =( NAMED_UNIT ( * ) SI_UNIT ( $, .STERADIAN. ) SOLID_ANGLE_UNIT ( ) );
#289 = SURFACE_SIDE_STYLE ('',( #396 ) ) ;
#290 = ADVANCED_FACE ( 'NONE', ( #331 ), #267, .F. ) ;
#291 = CIRCLE ( 'NONE', #41, 4.000000000000000000 ) ;
#292 = ORIENTED_EDGE ( 'NONE', *, *, #332, .T. ) ;
#293 = COLOUR_RGB ( '',0.6509803921568627600, 0.6196078431372549200, 0.5882352941176470800 ) ;
#294 = ADVANCED_FACE ( 'NONE', ( #116 ), #218, .T. ) ;
#295 =( NAMED_UNIT ( * ) PLANE_ANGLE_UNIT ( ) SI_UNIT ( $, .RADIAN. ) );
#296 = CIRCLE ( 'NONE', #210, 2.099999999999989000 ) ;
#297 = AXIS2_PLACEMENT_3D ( 'NONE', #42, #214, #237 ) ;
#298 = DIRECTION ( 'NONE',  ( 0.0000000000000000000, 0.0000000000000000000, 1.000000000000000000 ) ) ;
#299 = UNCERTAINTY_MEASURE_WITH_UNIT (LENGTH_MEASURE( 1.000000000000000100E-005 ), #320, 'distance_accuracy_value', 'NONE');
#300 = DIRECTION ( 'NONE',  ( -1.000000000000000000, 0.0000000000000000000, 0.0000000000000000000 ) ) ;
#301 = PRESENTATION_STYLE_ASSIGNMENT (( #333 ) ) ;
#302 = EDGE_LOOP ( 'NONE', ( #3, #398 ) ) ;
#303 = PRODUCT_DEFINITION ( 'UNKNOWN', '', #147, #98 ) ;
#304 = SURFACE_STYLE_FILL_AREA ( #92 ) ;
#305 = DIRECTION ( 'NONE',  ( -0.0000000000000000000, -0.0000000000000000000, -1.000000000000000000 ) ) ;
#306 = EDGE_LOOP ( 'NONE', ( #264, #269, #40, #15 ) ) ;
#307 = CARTESIAN_POINT ( 'NONE',  ( 0.0000000000000000000, 0.0000000000000000000, -42.50000000000000000 ) ) ;
#308 = VECTOR ( 'NONE', #370, 1000.000000000000000 ) ;
#309 = LINE ( 'NONE', #389, #191 ) ;
#310 = ORIENTED_EDGE ( 'NONE', *, *, #400, .T. ) ;
#311 = DIRECTION ( 'NONE',  ( 1.000000000000000000, 0.0000000000000000000, 0.0000000000000000000 ) ) ;
#312 = DIRECTION ( 'NONE',  ( -0.0000000000000000000, -0.0000000000000000000, 1.000000000000000000 ) ) ;
#313 = CLOSED_SHELL ( 'NONE', ( #102, #287, #345, #290, #203, #294, #30, #26, #165, #375, #62, #286 ) ) ;
#314 = DIRECTION ( 'NONE',  ( -0.0000000000000000000, -0.0000000000000000000, -1.000000000000000000 ) ) ;
#315 = CARTESIAN_POINT ( 'NONE',  ( -2.099999999999987200, 0.0000000000000000000, -28.50000000000000400 ) ) ;
#316 =( NAMED_UNIT ( * ) PLANE_ANGLE_UNIT ( ) SI_UNIT ( $, .RADIAN. ) );
#317 = CONICAL_SURFACE ( 'NONE', #28, 2.099999999999987200, 1.029744258676654100 ) ;
#318 = ORIENTED_EDGE ( 'NONE', *, *, #168, .F. ) ;
#319 =( NAMED_UNIT ( * ) PLANE_ANGLE_UNIT ( ) SI_UNIT ( $, .RADIAN. ) );
#320 =( LENGTH_UNIT ( ) NAMED_UNIT ( * ) SI_UNIT ( .MILLI., .METRE. ) );
#321 = VERTEX_POINT ( 'NONE', #338 ) ;
#322 = EDGE_LOOP ( 'NONE', ( #148, #243 ) ) ;
#323 = EDGE_CURVE ( 'NONE', #36, #227, #226, .T. ) ;
#324 = ORIENTED_EDGE ( 'NONE', *, *, #110, .F. ) ;
#325 = PLANE ( 'NONE',  #297 ) ;
#326 =( GEOMETRIC_REPRESENTATION_CONTEXT ( 3 ) GLOBAL_UNCERTAINTY_ASSIGNED_CONTEXT ( ( #173 ) ) GLOBAL_UNIT_ASSIGNED_CONTEXT ( ( #224, #282, #56 ) ) REPRESENTATION_CONTEXT ( 'NONE', 'WORKASPACE' ) );
#327 = EDGE_CURVE ( 'NONE', #75, #238, #74, .T. ) ;
#328 =( NAMED_UNIT ( * ) SI_UNIT ( $, .STERADIAN. ) SOLID_ANGLE_UNIT ( ) );
#329 = FACE_OUTER_BOUND ( 'NONE', #306, .T. ) ;
#330 = DIRECTION ( 'NONE',  ( 0.0000000000000000000, 0.0000000000000000000, 1.000000000000000000 ) ) ;
#331 = FACE_OUTER_BOUND ( 'NONE', #382, .T. ) ;
#332 = EDGE_CURVE ( 'NONE', #350, #177, #229, .T. ) ;
#333 = SURFACE_STYLE_USAGE ( .BOTH. , #149 ) ;
#334 = VECTOR ( 'NONE', #337, 1000.000000000000000 ) ;
#335 = VERTEX_POINT ( 'NONE', #344 ) ;
#336 = ADVANCED_BREP_SHAPE_REPRESENTATION ( 'XW-USI-050-A-axe-glissiÞre-BAC', ( #12, #353 ), #8 ) ;
#337 = DIRECTION ( 'NONE',  ( -0.0000000000000000000, -0.0000000000000000000, -1.000000000000000000 ) ) ;
#338 = CARTESIAN_POINT ( 'NONE',  ( 2.099999999999987200, 2.571758278209426200E-016, -28.50000000000000400 ) ) ;
#339 = PRESENTATION_STYLE_ASSIGNMENT (( #209 ) ) ;
#340 = ORIENTED_EDGE ( 'NONE', *, *, #212, .T. ) ;
#341 = DIRECTION ( 'NONE',  ( -0.8571673007021121100, 0.0000000000000000000, -0.5150380749100544900 ) ) ;
#342 = PRESENTATION_LAYER_ASSIGNMENT (  '', '', ( #178 ) ) ;
#343 = FILL_AREA_STYLE ('',( #346 ) ) ;
#344 = CARTESIAN_POINT ( 'NONE',  ( 4.000000000000000000, 4.898587196589412800E-016, 42.50000000000000000 ) ) ;
#345 = ADVANCED_FACE ( 'NONE', ( #329 ), #82, .F. ) ;
#346 = FILL_AREA_STYLE_COLOUR ( '', #77 ) ;
#347 = ORIENTED_EDGE ( 'NONE', *, *, #381, .T. ) ;
#348 = DIRECTION ( 'NONE',  ( -0.0000000000000000000, -0.0000000000000000000, 1.000000000000000000 ) ) ;
#349 = PRESENTATION_LAYER_ASSIGNMENT (  '', '', ( #378 ) ) ;
#350 = VERTEX_POINT ( 'NONE', #257 ) ;
#351 = CARTESIAN_POINT ( 'NONE',  ( 0.0000000000000000000, 0.0000000000000000000, 42.50000000000000000 ) ) ;
#352 = UNCERTAINTY_MEASURE_WITH_UNIT (LENGTH_MEASURE( 1.000000000000000100E-005 ), #189, 'distance_accuracy_value', 'NONE');
#353 = AXIS2_PLACEMENT_3D ( 'NONE', #408, #205, #32 ) ;
#354 = SURFACE_STYLE_USAGE ( .BOTH. , #385 ) ;
#355 = CIRCLE ( 'NONE', #72, 2.099999999999987200 ) ;
#356 = LINE ( 'NONE', #91, #273 ) ;
#357 = ORIENTED_EDGE ( 'NONE', *, *, #194, .T. ) ;
#358 = ORIENTED_EDGE ( 'NONE', *, *, #400, .F. ) ;
#359 =( LENGTH_UNIT ( ) NAMED_UNIT ( * ) SI_UNIT ( .MILLI., .METRE. ) );
#360 = CARTESIAN_POINT ( 'NONE',  ( 0.0000000000000000000, 0.0000000000000000000, 42.50000000000000000 ) ) ;
#361 = CIRCLE ( 'NONE', #158, 2.099999999999989000 ) ;
#362 = CIRCLE ( 'NONE', #366, 4.000000000000000000 ) ;
#363 = CARTESIAN_POINT ( 'NONE',  ( 0.0000000000000000000, 0.0000000000000000000, 42.50000000000000000 ) ) ;
#364 = DIRECTION ( 'NONE',  ( 1.000000000000000000, 0.0000000000000000000, 0.0000000000000000000 ) ) ;
#365 = LINE ( 'NONE', #222, #88 ) ;
#366 = AXIS2_PLACEMENT_3D ( 'NONE', #17, #120, #248 ) ;
#367 = EDGE_LOOP ( 'NONE', ( #245, #7, #188, #318 ) ) ;
#368 = DIRECTION ( 'NONE',  ( -0.0000000000000000000, -0.0000000000000000000, -1.000000000000000000 ) ) ;
#369 = EDGE_CURVE ( 'NONE', #75, #36, #242, .T. ) ;
#370 = DIRECTION ( 'NONE',  ( 0.8571673007021121100, 0.0000000000000000000, 0.5150380749100544900 ) ) ;
#371 = PRESENTATION_STYLE_ASSIGNMENT (( #231 ) ) ;
#372 = CIRCLE ( 'NONE', #51, 4.000000000000000000 ) ;
#373 =( NAMED_UNIT ( * ) SI_UNIT ( $, .STERADIAN. ) SOLID_ANGLE_UNIT ( ) );
#374 = ORIENTED_EDGE ( 'NONE', *, *, #384, .F. ) ;
#375 = ADVANCED_FACE ( 'NONE', ( #253 ), #136, .F. ) ;
#376 = CARTESIAN_POINT ( 'NONE',  ( 0.0000000000000000000, 0.0000000000000000000, 28.50000000000000400 ) ) ;
#377 =( LENGTH_UNIT ( ) NAMED_UNIT ( * ) SI_UNIT ( .MILLI., .METRE. ) );
#378 = STYLED_ITEM ( 'NONE', ( #301 ), #102 ) ;
#379 = PRESENTATION_STYLE_ASSIGNMENT (( #94 ) ) ;
#380 = EDGE_LOOP ( 'NONE', ( #387, #280, #254 ) ) ;
#381 = EDGE_CURVE ( 'NONE', #36, #238, #355, .T. ) ;
#382 = EDGE_LOOP ( 'NONE', ( #107, #155, #407 ) ) ;
#383 = AXIS2_PLACEMENT_3D ( 'NONE', #117, #85, #44 ) ;
#384 = EDGE_CURVE ( 'NONE', #350, #335, #19, .T. ) ;
#385 = SURFACE_SIDE_STYLE ('',( #258 ) ) ;
#386 = VERTEX_POINT ( 'NONE', #68 ) ;
#387 = ORIENTED_EDGE ( 'NONE', *, *, #225, .F. ) ;
#388 = DIRECTION ( 'NONE',  ( 1.000000000000000000, 0.0000000000000000000, 0.0000000000000000000 ) ) ;
#389 = CARTESIAN_POINT ( 'NONE',  ( 4.000000000000000000, 4.898587196589412800E-016, 42.50000000000000000 ) ) ;
#390 = CONICAL_SURFACE ( 'NONE', #383, 2.099999999999987200, 1.029744258676654100 ) ;
#391 = ORIENTED_EDGE ( 'NONE', *, *, #96, .F. ) ;
#392 = CARTESIAN_POINT ( 'NONE',  ( 0.0000000000000000000, 0.0000000000000000000, -42.50000000000000000 ) ) ;
#393 = DIRECTION ( 'NONE',  ( 1.000000000000000000, 0.0000000000000000000, 0.0000000000000000000 ) ) ;
#394 = DIRECTION ( 'NONE',  ( -0.0000000000000000000, -0.0000000000000000000, 1.000000000000000000 ) ) ;
#395 = FILL_AREA_STYLE_COLOUR ( '', #137 ) ;
#396 = SURFACE_STYLE_FILL_AREA ( #29 ) ;
#397 =( GEOMETRIC_REPRESENTATION_CONTEXT ( 3 ) GLOBAL_UNCERTAINTY_ASSIGNED_CONTEXT ( ( #25 ) ) GLOBAL_UNIT_ASSIGNED_CONTEXT ( ( #377, #316, #132 ) ) REPRESENTATION_CONTEXT ( 'NONE', 'WORKASPACE' ) );
#398 = ORIENTED_EDGE ( 'NONE', *, *, #161, .T. ) ;
#399 = CARTESIAN_POINT ( 'NONE',  ( 2.099999999999987200, 0.0000000000000000000, 28.50000000000000400 ) ) ;
#400 = EDGE_CURVE ( 'NONE', #238, #36, #174, .T. ) ;
#401 = DIRECTION ( 'NONE',  ( -0.0000000000000000000, -0.0000000000000000000, -1.000000000000000000 ) ) ;
#402 = SURFACE_STYLE_FILL_AREA ( #405 ) ;
#403 = CYLINDRICAL_SURFACE ( 'NONE', #109, 2.099999999999988100 ) ;
#404 = FACE_BOUND ( 'NONE', #322, .T. ) ;
#405 = FILL_AREA_STYLE ('',( #206 ) ) ;
#406 = AXIS2_PLACEMENT_3D ( 'NONE', #14, #50, #90 ) ;
#407 = ORIENTED_EDGE ( 'NONE', *, *, #35, .T. ) ;
#408 = CARTESIAN_POINT ( 'NONE',  ( 0.0000000000000000000, 0.0000000000000000000, 0.0000000000000000000 ) ) ;
ENDSEC;
END-ISO-10303-21;
