ISO-10303-21;
HEADER;
FILE_DESCRIPTION(('CATIA V5 STEP Exchange'),'2;1');

FILE_NAME('C:\\Users\\PLO\\Documents\\brasserieSemie\\cannesRemplissage\\bouchon.stp','2020-09-24T09:19:24+00:00',('none'),('none'),'CATIA Version 5 Release 20 GA (IN-10)','CATIA V5 STEP AP203','none');

FILE_SCHEMA(('CONFIG_CONTROL_DESIGN'));

ENDSEC;
/* file written by CATIA V5R20 */
DATA;
#5=PRODUCT('bouchon','','',(#2)) ;
#1=APPLICATION_CONTEXT('configuration controlled 3D design of mechanical parts and assemblies') ;
#14=PRODUCT_DEFINITION('',' ',#6,#3) ;
#16=SECURITY_CLASSIFICATION(' ',' ',#15) ;
#15=SECURITY_CLASSIFICATION_LEVEL('unclassified') ;
#47=CARTESIAN_POINT(' ',(0.,0.,0.)) ;
#52=CARTESIAN_POINT('Axis2P3D Location',(0.,0.,12.)) ;
#57=CARTESIAN_POINT('Axis2P3D Location',(0.,0.,12.)) ;
#61=CARTESIAN_POINT('Vertex',(5.,-1.22464679915E-015,12.)) ;
#63=CARTESIAN_POINT('Vertex',(-5.,6.12323399574E-016,12.)) ;
#66=CARTESIAN_POINT('Axis2P3D Location',(0.,0.,12.)) ;
#76=CARTESIAN_POINT('Axis2P3D Location',(0.,0.,9.5)) ;
#81=CARTESIAN_POINT('Axis2P3D Location',(0.,0.,7.)) ;
#85=CARTESIAN_POINT('Vertex',(-5.,6.12323399574E-016,7.)) ;
#87=CARTESIAN_POINT('Vertex',(5.,0.,7.)) ;
#90=CARTESIAN_POINT('Line Origine',(5.,-1.22464679915E-015,9.5)) ;
#95=CARTESIAN_POINT('Line Origine',(-5.,6.12323399574E-016,9.5)) ;
#107=CARTESIAN_POINT('Axis2P3D Location',(0.,0.,7.)) ;
#119=CARTESIAN_POINT('Axis2P3D Location',(0.,0.,7.)) ;
#124=CARTESIAN_POINT('Axis2P3D Location',(0.,0.,7.)) ;
#128=CARTESIAN_POINT('Vertex',(7.5,0.,7.)) ;
#130=CARTESIAN_POINT('Vertex',(-7.5,4.24915417324E-015,7.)) ;
#133=CARTESIAN_POINT('Axis2P3D Location',(0.,0.,7.)) ;
#147=CARTESIAN_POINT('Axis2P3D Location',(0.,0.,0.)) ;
#152=CARTESIAN_POINT('Axis2P3D Location',(-6.40788864738E-031,-5.71092227492E-015,0.)) ;
#156=CARTESIAN_POINT('Vertex',(-2.49999999999,-5.48379602596E-006,0.)) ;
#158=CARTESIAN_POINT('Vertex',(2.5,2.55853852251E-015,0.)) ;
#161=CARTESIAN_POINT('Axis2P3D Location',(-5.37070388162E-015,9.99200722163E-016,0.)) ;
#171=CARTESIAN_POINT('Axis2P3D Location',(0.,0.,6.)) ;
#176=CARTESIAN_POINT('Line Origine',(7.5,-8.49830834647E-015,6.)) ;
#180=CARTESIAN_POINT('Vertex',(7.5,-8.49830834647E-015,5.)) ;
#183=CARTESIAN_POINT('Line Origine',(-7.5,4.24915417324E-015,6.)) ;
#187=CARTESIAN_POINT('Vertex',(-7.5,4.24915417324E-015,5.)) ;
#190=CARTESIAN_POINT('Axis2P3D Location',(0.,0.,5.)) ;
#202=CARTESIAN_POINT('Axis2P3D Location',(0.,0.,5.)) ;
#214=CARTESIAN_POINT('Axis2P3D Location',(-8.65973959208E-015,-3.77475828373E-015,-2.5)) ;
#219=CARTESIAN_POINT('Line Origine',(5.,4.69416172599E-015,2.5)) ;
#224=CARTESIAN_POINT('Line Origine',(-4.99999999999,-1.09675920476E-005,2.5)) ;
#236=CARTESIAN_POINT('Axis2P3D Location',(5.55111512313E-016,-1.10189635194E-014,-2.5)) ;
#53=DIRECTION('Axis2P3D Direction',(0.,0.,1.)) ;
#54=DIRECTION('Axis2P3D XDirection',(1.,0.,0.)) ;
#58=DIRECTION('Axis2P3D Direction',(0.,0.,1.)) ;
#67=DIRECTION('Axis2P3D Direction',(0.,0.,1.)) ;
#77=DIRECTION('Axis2P3D Direction',(0.,0.,1.)) ;
#78=DIRECTION('Axis2P3D XDirection',(1.,0.,0.)) ;
#82=DIRECTION('Axis2P3D Direction',(0.,0.,1.)) ;
#91=DIRECTION('Vector Direction',(0.,0.,1.)) ;
#96=DIRECTION('Vector Direction',(0.,0.,1.)) ;
#108=DIRECTION('Axis2P3D Direction',(0.,0.,1.)) ;
#120=DIRECTION('Axis2P3D Direction',(0.,0.,1.)) ;
#121=DIRECTION('Axis2P3D XDirection',(1.,0.,0.)) ;
#125=DIRECTION('Axis2P3D Direction',(0.,0.,1.)) ;
#134=DIRECTION('Axis2P3D Direction',(0.,0.,1.)) ;
#148=DIRECTION('Axis2P3D Direction',(0.,0.,1.)) ;
#149=DIRECTION('Axis2P3D XDirection',(1.,0.,0.)) ;
#153=DIRECTION('Axis2P3D Direction',(0.,0.,1.)) ;
#162=DIRECTION('Axis2P3D Direction',(0.,0.,1.)) ;
#172=DIRECTION('Axis2P3D Direction',(0.,0.,1.)) ;
#173=DIRECTION('Axis2P3D XDirection',(1.,0.,0.)) ;
#177=DIRECTION('Vector Direction',(0.,0.,1.)) ;
#184=DIRECTION('Vector Direction',(0.,0.,1.)) ;
#191=DIRECTION('Axis2P3D Direction',(0.,0.,1.)) ;
#203=DIRECTION('Axis2P3D Direction',(0.,0.,1.)) ;
#215=DIRECTION('Axis2P3D Direction',(1.15463194561E-015,6.2172489379E-016,1.)) ;
#216=DIRECTION('Axis2P3D XDirection',(1.,-5.7191449336E-017,-1.18538011437E-015)) ;
#220=DIRECTION('Vector Direction',(0.707106781187,1.19768615364E-015,0.707106781187)) ;
#225=DIRECTION('Vector Direction',(-0.707106781185,-1.5510517415E-006,0.707106781187)) ;
#237=DIRECTION('Axis2P3D Direction',(-3.10862446895E-016,1.3211653993E-015,1.)) ;
#238=DIRECTION('Axis2P3D XDirection',(-0.809016994375,0.587785252292,-1.05367121277E-015)) ;
#48=AXIS2_PLACEMENT_3D(' ',#47,$,$) ;
#55=AXIS2_PLACEMENT_3D('Plane Axis2P3D',#52,#53,#54) ;
#59=AXIS2_PLACEMENT_3D('Circle Axis2P3D',#57,#58,$) ;
#68=AXIS2_PLACEMENT_3D('Circle Axis2P3D',#66,#67,$) ;
#79=AXIS2_PLACEMENT_3D('Cylinder Axis2P3D',#76,#77,#78) ;
#83=AXIS2_PLACEMENT_3D('Circle Axis2P3D',#81,#82,$) ;
#109=AXIS2_PLACEMENT_3D('Circle Axis2P3D',#107,#108,$) ;
#122=AXIS2_PLACEMENT_3D('Plane Axis2P3D',#119,#120,#121) ;
#126=AXIS2_PLACEMENT_3D('Circle Axis2P3D',#124,#125,$) ;
#135=AXIS2_PLACEMENT_3D('Circle Axis2P3D',#133,#134,$) ;
#150=AXIS2_PLACEMENT_3D('Plane Axis2P3D',#147,#148,#149) ;
#154=AXIS2_PLACEMENT_3D('Circle Axis2P3D',#152,#153,$) ;
#163=AXIS2_PLACEMENT_3D('Circle Axis2P3D',#161,#162,$) ;
#174=AXIS2_PLACEMENT_3D('Cylinder Axis2P3D',#171,#172,#173) ;
#192=AXIS2_PLACEMENT_3D('Circle Axis2P3D',#190,#191,$) ;
#204=AXIS2_PLACEMENT_3D('Circle Axis2P3D',#202,#203,$) ;
#217=AXIS2_PLACEMENT_3D('Cone Axis2P3D',#214,#215,#216) ;
#239=AXIS2_PLACEMENT_3D('Cone Axis2P3D',#236,#237,#238) ;
#40=PRODUCT_DEFINITION_SHAPE(' ',' ',#14) ;
#31=APPROVAL_PERSON_ORGANIZATION(#25,#21,#19) ;
#25=PERSON_AND_ORGANIZATION(#22,#23) ;
#22=PERSON(' ',' ',' ',$,$,$) ;
#23=ORGANIZATION(' ',' ',' ') ;
#21=APPROVAL(#20,' ') ;
#20=APPROVAL_STATUS('not_yet_approved') ;
#19=APPROVAL_ROLE('APPROVER') ;
#13=DATE_AND_TIME(#11,#12) ;
#12=LOCAL_TIME(11,19,22.,#10) ;
#10=COORDINATED_UNIVERSAL_TIME_OFFSET(0,0,.AHEAD.) ;
#72=ORIENTED_EDGE('',*,*,#65,.T.) ;
#73=ORIENTED_EDGE('',*,*,#70,.T.) ;
#101=ORIENTED_EDGE('',*,*,#89,.T.) ;
#102=ORIENTED_EDGE('',*,*,#94,.F.) ;
#103=ORIENTED_EDGE('',*,*,#70,.F.) ;
#104=ORIENTED_EDGE('',*,*,#99,.T.) ;
#113=ORIENTED_EDGE('',*,*,#111,.T.) ;
#114=ORIENTED_EDGE('',*,*,#99,.F.) ;
#115=ORIENTED_EDGE('',*,*,#65,.F.) ;
#116=ORIENTED_EDGE('',*,*,#94,.T.) ;
#139=ORIENTED_EDGE('',*,*,#132,.T.) ;
#140=ORIENTED_EDGE('',*,*,#137,.T.) ;
#143=ORIENTED_EDGE('',*,*,#89,.F.) ;
#144=ORIENTED_EDGE('',*,*,#111,.F.) ;
#167=ORIENTED_EDGE('',*,*,#160,.F.) ;
#168=ORIENTED_EDGE('',*,*,#165,.F.) ;
#196=ORIENTED_EDGE('',*,*,#182,.T.) ;
#197=ORIENTED_EDGE('',*,*,#137,.F.) ;
#198=ORIENTED_EDGE('',*,*,#189,.F.) ;
#199=ORIENTED_EDGE('',*,*,#194,.T.) ;
#208=ORIENTED_EDGE('',*,*,#189,.T.) ;
#209=ORIENTED_EDGE('',*,*,#132,.F.) ;
#210=ORIENTED_EDGE('',*,*,#182,.F.) ;
#211=ORIENTED_EDGE('',*,*,#206,.T.) ;
#230=ORIENTED_EDGE('',*,*,#223,.T.) ;
#231=ORIENTED_EDGE('',*,*,#165,.T.) ;
#232=ORIENTED_EDGE('',*,*,#228,.F.) ;
#233=ORIENTED_EDGE('',*,*,#206,.F.) ;
#242=ORIENTED_EDGE('',*,*,#228,.T.) ;
#243=ORIENTED_EDGE('',*,*,#160,.T.) ;
#244=ORIENTED_EDGE('',*,*,#223,.F.) ;
#245=ORIENTED_EDGE('',*,*,#194,.F.) ;
#145=FACE_BOUND('',#142,.T.) ;
#51=CLOSED_SHELL('Closed Shell',(#75,#106,#118,#146,#170,#201,#213,#235,#247)) ;
#92=VECTOR('Line Direction',#91,1.) ;
#97=VECTOR('Line Direction',#96,1.) ;
#178=VECTOR('Line Direction',#177,1.) ;
#185=VECTOR('Line Direction',#184,1.) ;
#221=VECTOR('Line Direction',#220,1.) ;
#226=VECTOR('Line Direction',#225,1.) ;
#249=ADVANCED_BREP_SHAPE_REPRESENTATION('NONE',(#248),#46) ;
#49=SHAPE_REPRESENTATION(' ',(#48),#46) ;
#75=ADVANCED_FACE('Corps principal',(#74),#56,.T.) ;
#106=ADVANCED_FACE('Corps principal',(#105),#80,.T.) ;
#118=ADVANCED_FACE('Corps principal',(#117),#80,.T.) ;
#146=ADVANCED_FACE('Corps principal',(#141,#145),#123,.T.) ;
#170=ADVANCED_FACE('Corps principal',(#169),#151,.F.) ;
#201=ADVANCED_FACE('Corps principal',(#200),#175,.T.) ;
#213=ADVANCED_FACE('Corps principal',(#212),#175,.T.) ;
#235=ADVANCED_FACE('Corps principal',(#234),#218,.T.) ;
#247=ADVANCED_FACE('Corps principal',(#246),#240,.T.) ;
#4=APPLICATION_PROTOCOL_DEFINITION('international standard','config_control_design',1994,#1) ;
#32=APPROVAL_DATE_TIME(#13,#21) ;
#248=MANIFOLD_SOLID_BREP('Corps principal',#51) ;
#11=CALENDAR_DATE(2020,24,9) ;
#30=CC_DESIGN_APPROVAL(#21,(#16,#6,#14)) ;
#18=CC_DESIGN_DATE_AND_TIME_ASSIGNMENT(#13,#17,(#16)) ;
#29=CC_DESIGN_DATE_AND_TIME_ASSIGNMENT(#13,#28,(#14)) ;
#17=DATE_TIME_ROLE('classification_date') ;
#28=DATE_TIME_ROLE('creation_date') ;
#27=CC_DESIGN_PERSON_AND_ORGANIZATION_ASSIGNMENT(#25,#26,(#16)) ;
#33=CC_DESIGN_PERSON_AND_ORGANIZATION_ASSIGNMENT(#25,#34,(#6)) ;
#35=CC_DESIGN_PERSON_AND_ORGANIZATION_ASSIGNMENT(#25,#36,(#6,#14)) ;
#37=CC_DESIGN_PERSON_AND_ORGANIZATION_ASSIGNMENT(#25,#38,(#5)) ;
#26=PERSON_AND_ORGANIZATION_ROLE('classification_officer') ;
#34=PERSON_AND_ORGANIZATION_ROLE('design_supplier') ;
#36=PERSON_AND_ORGANIZATION_ROLE('creator') ;
#38=PERSON_AND_ORGANIZATION_ROLE('design_owner') ;
#39=CC_DESIGN_SECURITY_CLASSIFICATION(#16,(#6)) ;
#60=CIRCLE('generated circle',#59,5.) ;
#69=CIRCLE('generated circle',#68,5.) ;
#84=CIRCLE('generated circle',#83,5.) ;
#110=CIRCLE('generated circle',#109,5.) ;
#127=CIRCLE('generated circle',#126,7.5) ;
#136=CIRCLE('generated circle',#135,7.5) ;
#155=CIRCLE('generated circle',#154,2.5) ;
#164=CIRCLE('generated circle',#163,2.5) ;
#193=CIRCLE('generated circle',#192,7.5) ;
#205=CIRCLE('generated circle',#204,7.5) ;
#218=CONICAL_SURFACE('Cone',#217,0.,0.785398163397) ;
#240=CONICAL_SURFACE('Cone',#239,0.,0.785398163397) ;
#250=SHAPE_REPRESENTATION_RELATIONSHIP(' ',' ',#49,#249) ;
#80=CYLINDRICAL_SURFACE('generated cylinder',#79,5.) ;
#175=CYLINDRICAL_SURFACE('generated cylinder',#174,7.5) ;
#3=DESIGN_CONTEXT(' ',#1,'design') ;
#65=EDGE_CURVE('',#62,#64,#60,.T.) ;
#70=EDGE_CURVE('',#64,#62,#69,.T.) ;
#89=EDGE_CURVE('',#86,#88,#84,.T.) ;
#94=EDGE_CURVE('',#62,#88,#93,.F.) ;
#99=EDGE_CURVE('',#64,#86,#98,.F.) ;
#111=EDGE_CURVE('',#88,#86,#110,.T.) ;
#132=EDGE_CURVE('',#129,#131,#127,.T.) ;
#137=EDGE_CURVE('',#131,#129,#136,.T.) ;
#160=EDGE_CURVE('',#157,#159,#155,.T.) ;
#165=EDGE_CURVE('',#159,#157,#164,.T.) ;
#182=EDGE_CURVE('',#181,#129,#179,.T.) ;
#189=EDGE_CURVE('',#188,#131,#186,.T.) ;
#194=EDGE_CURVE('',#188,#181,#193,.T.) ;
#206=EDGE_CURVE('',#181,#188,#205,.T.) ;
#223=EDGE_CURVE('',#181,#159,#222,.F.) ;
#228=EDGE_CURVE('',#188,#157,#227,.F.) ;
#71=EDGE_LOOP('',(#72,#73)) ;
#100=EDGE_LOOP('',(#101,#102,#103,#104)) ;
#112=EDGE_LOOP('',(#113,#114,#115,#116)) ;
#138=EDGE_LOOP('',(#139,#140)) ;
#142=EDGE_LOOP('',(#143,#144)) ;
#166=EDGE_LOOP('',(#167,#168)) ;
#195=EDGE_LOOP('',(#196,#197,#198,#199)) ;
#207=EDGE_LOOP('',(#208,#209,#210,#211)) ;
#229=EDGE_LOOP('',(#230,#231,#232,#233)) ;
#241=EDGE_LOOP('',(#242,#243,#244,#245)) ;
#74=FACE_OUTER_BOUND('',#71,.T.) ;
#105=FACE_OUTER_BOUND('',#100,.T.) ;
#117=FACE_OUTER_BOUND('',#112,.T.) ;
#141=FACE_OUTER_BOUND('',#138,.T.) ;
#169=FACE_OUTER_BOUND('',#166,.T.) ;
#200=FACE_OUTER_BOUND('',#195,.T.) ;
#212=FACE_OUTER_BOUND('',#207,.T.) ;
#234=FACE_OUTER_BOUND('',#229,.T.) ;
#246=FACE_OUTER_BOUND('',#241,.T.) ;
#45=UNCERTAINTY_MEASURE_WITH_UNIT(LENGTH_MEASURE(0.005),#41,'distance_accuracy_value','CONFUSED CURVE UNCERTAINTY') ;
#93=LINE('Line',#90,#92) ;
#98=LINE('Line',#95,#97) ;
#179=LINE('Line',#176,#178) ;
#186=LINE('Line',#183,#185) ;
#222=LINE('Line',#219,#221) ;
#227=LINE('Line',#224,#226) ;
#2=MECHANICAL_CONTEXT(' ',#1,'mechanical') ;
#24=PERSONAL_ADDRESS(' ',' ',' ',' ',' ',' ',' ',' ',' ',' ',' ',' ',(#22),' ') ;
#56=PLANE('Plane',#55) ;
#123=PLANE('Plane',#122) ;
#151=PLANE('Plane',#150) ;
#43=PLANE_ANGLE_MEASURE_WITH_UNIT(PLANE_ANGLE_MEASURE(0.0174532925199),#42) ;
#7=PRODUCT_CATEGORY('part',$) ;
#9=PRODUCT_CATEGORY_RELATIONSHIP(' ',' ',#7,#8) ;
#6=PRODUCT_DEFINITION_FORMATION_WITH_SPECIFIED_SOURCE('',' ',#5,.NOT_KNOWN.) ;
#8=PRODUCT_RELATED_PRODUCT_CATEGORY('detail',$,(#5)) ;
#50=SHAPE_DEFINITION_REPRESENTATION(#40,#49) ;
#62=VERTEX_POINT('',#61) ;
#64=VERTEX_POINT('',#63) ;
#86=VERTEX_POINT('',#85) ;
#88=VERTEX_POINT('',#87) ;
#129=VERTEX_POINT('',#128) ;
#131=VERTEX_POINT('',#130) ;
#157=VERTEX_POINT('',#156) ;
#159=VERTEX_POINT('',#158) ;
#181=VERTEX_POINT('',#180) ;
#188=VERTEX_POINT('',#187) ;
#41=(LENGTH_UNIT()NAMED_UNIT(*)SI_UNIT(.MILLI.,.METRE.)) ;
#42=(NAMED_UNIT(*)PLANE_ANGLE_UNIT()SI_UNIT($,.RADIAN.)) ;
#44=(NAMED_UNIT(*)SI_UNIT($,.STERADIAN.)SOLID_ANGLE_UNIT()) ;
#46=(GEOMETRIC_REPRESENTATION_CONTEXT(3)GLOBAL_UNCERTAINTY_ASSIGNED_CONTEXT((#45))GLOBAL_UNIT_ASSIGNED_CONTEXT((#41,#42,#44))REPRESENTATION_CONTEXT(' ',' ')) ;
ENDSEC;
END-ISO-10303-21;
