ISO-10303-21;
HEADER;
FILE_DESCRIPTION (( 'STEP AP214' ),
    '1' );
FILE_NAME ('XW-USI-058-A-entretoise2.STEP',
    '2020-09-18T12:21:52',
    ( '' ),
    ( '' ),
    'SwSTEP 2.0',
    'SolidWorks 2016',
    '' );
FILE_SCHEMA (( 'AUTOMOTIVE_DESIGN' ));
ENDSEC;

DATA;
#1 = ADVANCED_FACE ( 'NONE', ( #212, #59 ), #42, .T. ) ;
#2 = CARTESIAN_POINT ( 'NONE',  ( 0.0000000000000000000, 0.0000000000000000000, 6.799999999999999800 ) ) ;
#3 = DIRECTION ( 'NONE',  ( -0.0000000000000000000, -0.0000000000000000000, -1.000000000000000000 ) ) ;
#4 = DIRECTION ( 'NONE',  ( 1.000000000000000000, 0.0000000000000000000, 0.0000000000000000000 ) ) ;
#5 = AXIS2_PLACEMENT_3D ( 'NONE', #38, #200, #21 ) ;
#6 = CARTESIAN_POINT ( 'NONE',  ( -5.250000000000000000, 0.0000000000000000000, 0.0000000000000000000 ) ) ;
#7 = ORIENTED_EDGE ( 'NONE', *, *, #30, .F. ) ;
#8 = DIRECTION ( 'NONE',  ( 0.0000000000000000000, 0.0000000000000000000, 1.000000000000000000 ) ) ;
#9 =( NAMED_UNIT ( * ) SI_UNIT ( $, .STERADIAN. ) SOLID_ANGLE_UNIT ( ) );
#10 = ORIENTED_EDGE ( 'NONE', *, *, #195, .F. ) ;
#11 = DIRECTION ( 'NONE',  ( 0.0000000000000000000, 0.0000000000000000000, 1.000000000000000000 ) ) ;
#12 = FILL_AREA_STYLE ('',( #207 ) ) ;
#13 = ORIENTED_EDGE ( 'NONE', *, *, #132, .F. ) ;
#14 = EDGE_LOOP ( 'NONE', ( #73, #214 ) ) ;
#15 = MANIFOLD_SOLID_BREP ( 'Boss.-Extru.1', #153 ) ;
#16 = ADVANCED_FACE ( 'NONE', ( #87, #117 ), #20, .F. ) ;
#17 = ADVANCED_FACE ( 'NONE', ( #133 ), #22, .T. ) ;
#18 = COLOUR_RGB ( '',1.000000000000000000, 1.000000000000000000, 1.000000000000000000 ) ;
#19 = EDGE_LOOP ( 'NONE', ( #13, #165, #102, #28 ) ) ;
#20 = PLANE ( 'NONE',  #53 ) ;
#21 = DIRECTION ( 'NONE',  ( 1.000000000000000000, 0.0000000000000000000, -0.0000000000000000000 ) ) ;
#22 = CYLINDRICAL_SURFACE ( 'NONE', #60, 7.500000000000000000 ) ;
#23 = ORIENTED_EDGE ( 'NONE', *, *, #208, .T. ) ;
#24 = ADVANCED_FACE ( 'NONE', ( #183 ), #131, .F. ) ;
#25 =( NAMED_UNIT ( * ) SI_UNIT ( $, .STERADIAN. ) SOLID_ANGLE_UNIT ( ) );
#26 = CARTESIAN_POINT ( 'NONE',  ( 0.0000000000000000000, 0.0000000000000000000, 0.0000000000000000000 ) ) ;
#27 = CIRCLE ( 'NONE', #96, 7.500000000000000000 ) ;
#28 = ORIENTED_EDGE ( 'NONE', *, *, #107, .F. ) ;
#29 = CARTESIAN_POINT ( 'NONE',  ( 0.0000000000000000000, 0.0000000000000000000, 6.799999999999999800 ) ) ;
#30 = EDGE_CURVE ( 'NONE', #174, #80, #106, .T. ) ;
#31 = AXIS2_PLACEMENT_3D ( 'NONE', #184, #197, #37 ) ;
#32 = APPLICATION_PROTOCOL_DEFINITION ( 'draft international standard', 'automotive_design', 1998, #163 ) ;
#33 = ORIENTED_EDGE ( 'NONE', *, *, #132, .T. ) ;
#34 = CIRCLE ( 'NONE', #69, 7.500000000000000000 ) ;
#35 = ORIENTED_EDGE ( 'NONE', *, *, #161, .F. ) ;
#36 = ADVANCED_FACE ( 'NONE', ( #193 ), #152, .F. ) ;
#37 = DIRECTION ( 'NONE',  ( 1.000000000000000000, 0.0000000000000000000, 0.0000000000000000000 ) ) ;
#38 = CARTESIAN_POINT ( 'NONE',  ( 0.0000000000000000000, 0.0000000000000000000, 6.799999999999999800 ) ) ;
#39 = MECHANICAL_DESIGN_GEOMETRIC_PRESENTATION_REPRESENTATION (  '', ( #116 ), #149 ) ;
#40 =( NAMED_UNIT ( * ) PLANE_ANGLE_UNIT ( ) SI_UNIT ( $, .RADIAN. ) );
#41 = AXIS2_PLACEMENT_3D ( 'NONE', #113, #11, #162 ) ;
#42 = PLANE ( 'NONE',  #5 ) ;
#43 = CIRCLE ( 'NONE', #45, 7.500000000000000000 ) ;
#44 = DIRECTION ( 'NONE',  ( 1.000000000000000000, 0.0000000000000000000, 0.0000000000000000000 ) ) ;
#45 = AXIS2_PLACEMENT_3D ( 'NONE', #94, #81, #140 ) ;
#46 = DIRECTION ( 'NONE',  ( 1.000000000000000000, 0.0000000000000000000, 0.0000000000000000000 ) ) ;
#47 = DIRECTION ( 'NONE',  ( -0.0000000000000000000, -0.0000000000000000000, -1.000000000000000000 ) ) ;
#48 = CARTESIAN_POINT ( 'NONE',  ( 0.0000000000000000000, 0.0000000000000000000, 0.0000000000000000000 ) ) ;
#49 = EDGE_CURVE ( 'NONE', #70, #56, #27, .T. ) ;
#50 = SURFACE_STYLE_USAGE ( .BOTH. , #211 ) ;
#51 = VERTEX_POINT ( 'NONE', #138 ) ;
#52 = PRODUCT_DEFINITION_CONTEXT ( 'detailed design', #83, 'design' ) ;
#53 = AXIS2_PLACEMENT_3D ( 'NONE', #172, #151, #155 ) ;
#54 = VECTOR ( 'NONE', #47, 1000.000000000000000 ) ;
#55 = AXIS2_PLACEMENT_3D ( 'NONE', #29, #8, #76 ) ;
#56 = VERTEX_POINT ( 'NONE', #201 ) ;
#57 = SURFACE_STYLE_USAGE ( .BOTH. , #150 ) ;
#58 = FILL_AREA_STYLE ('',( #199 ) ) ;
#59 = FACE_BOUND ( 'NONE', #101, .T. ) ;
#60 = AXIS2_PLACEMENT_3D ( 'NONE', #2, #74, #104 ) ;
#61 = CARTESIAN_POINT ( 'NONE',  ( 5.250000000000000000, 6.429395695523604200E-016, 6.799999999999999800 ) ) ;
#62 = CARTESIAN_POINT ( 'NONE',  ( 0.0000000000000000000, 0.0000000000000000000, 6.799999999999999800 ) ) ;
#63 = CIRCLE ( 'NONE', #84, 5.250000000000000000 ) ;
#64 = DIRECTION ( 'NONE',  ( 0.0000000000000000000, 0.0000000000000000000, 1.000000000000000000 ) ) ;
#65 = EDGE_LOOP ( 'NONE', ( #85, #95, #7, #10 ) ) ;
#66 = DIRECTION ( 'NONE',  ( -0.0000000000000000000, -0.0000000000000000000, -1.000000000000000000 ) ) ;
#67 = VERTEX_POINT ( 'NONE', #205 ) ;
#68 = PRODUCT_CONTEXT ( 'NONE', #163, 'mechanical' ) ;
#69 = AXIS2_PLACEMENT_3D ( 'NONE', #127, #159, #175 ) ;
#70 = VERTEX_POINT ( 'NONE', #170 ) ;
#71 = AXIS2_PLACEMENT_3D ( 'NONE', #156, #64, #191 ) ;
#72 = DIRECTION ( 'NONE',  ( -1.000000000000000000, 0.0000000000000000000, 0.0000000000000000000 ) ) ;
#73 = ORIENTED_EDGE ( 'NONE', *, *, #179, .F. ) ;
#74 = DIRECTION ( 'NONE',  ( -0.0000000000000000000, -0.0000000000000000000, -1.000000000000000000 ) ) ;
#75 = DIRECTION ( 'NONE',  ( -1.000000000000000000, 0.0000000000000000000, 0.0000000000000000000 ) ) ;
#76 = DIRECTION ( 'NONE',  ( 1.000000000000000000, 0.0000000000000000000, 0.0000000000000000000 ) ) ;
#77 = CARTESIAN_POINT ( 'NONE',  ( -7.500000000000000000, 0.0000000000000000000, 6.799999999999999800 ) ) ;
#78 = CIRCLE ( 'NONE', #213, 5.250000000000000000 ) ;
#79 = PRODUCT ( 'XW-USI-058-A-entretoise2', 'XW-USI-058-A-entretoise2', '', ( #68 ) ) ;
#80 = VERTEX_POINT ( 'NONE', #176 ) ;
#81 = DIRECTION ( 'NONE',  ( 0.0000000000000000000, 0.0000000000000000000, 1.000000000000000000 ) ) ;
#82 = ORIENTED_EDGE ( 'NONE', *, *, #195, .T. ) ;
#83 = APPLICATION_CONTEXT ( 'automotive_design' ) ;
#84 = AXIS2_PLACEMENT_3D ( 'NONE', #48, #202, #4 ) ;
#85 = ORIENTED_EDGE ( 'NONE', *, *, #147, .T. ) ;
#86 =( NAMED_UNIT ( * ) PLANE_ANGLE_UNIT ( ) SI_UNIT ( $, .RADIAN. ) );
#87 = FACE_OUTER_BOUND ( 'NONE', #14, .T. ) ;
#88 = ADVANCED_FACE ( 'NONE', ( #168 ), #100, .T. ) ;
#89 =( GEOMETRIC_REPRESENTATION_CONTEXT ( 3 ) GLOBAL_UNCERTAINTY_ASSIGNED_CONTEXT ( ( #128 ) ) GLOBAL_UNIT_ASSIGNED_CONTEXT ( ( #210, #86, #9 ) ) REPRESENTATION_CONTEXT ( 'NONE', 'WORKASPACE' ) );
#90 = VECTOR ( 'NONE', #66, 1000.000000000000000 ) ;
#91 = EDGE_LOOP ( 'NONE', ( #118, #111, #82, #185 ) ) ;
#92 = CARTESIAN_POINT ( 'NONE',  ( 5.250000000000000000, 6.429395695523604200E-016, 6.799999999999999800 ) ) ;
#93 = DIRECTION ( 'NONE',  ( -0.0000000000000000000, -0.0000000000000000000, -1.000000000000000000 ) ) ;
#94 = CARTESIAN_POINT ( 'NONE',  ( 0.0000000000000000000, 0.0000000000000000000, 6.799999999999999800 ) ) ;
#95 = ORIENTED_EDGE ( 'NONE', *, *, #188, .T. ) ;
#96 = AXIS2_PLACEMENT_3D ( 'NONE', #26, #189, #44 ) ;
#97 = CIRCLE ( 'NONE', #71, 5.250000000000000000 ) ;
#98 = ORIENTED_EDGE ( 'NONE', *, *, #179, .T. ) ;
#99 = STYLED_ITEM ( 'NONE', ( #142 ), #139 ) ;
#100 = CYLINDRICAL_SURFACE ( 'NONE', #167, 7.500000000000000000 ) ;
#101 = EDGE_LOOP ( 'NONE', ( #186, #137 ) ) ;
#102 = ORIENTED_EDGE ( 'NONE', *, *, #49, .T. ) ;
#103 = CARTESIAN_POINT ( 'NONE',  ( 0.0000000000000000000, 0.0000000000000000000, 6.799999999999999800 ) ) ;
#104 = DIRECTION ( 'NONE',  ( -1.000000000000000000, 0.0000000000000000000, 0.0000000000000000000 ) ) ;
#105 = DIRECTION ( 'NONE',  ( -0.0000000000000000000, -0.0000000000000000000, -1.000000000000000000 ) ) ;
#106 = CIRCLE ( 'NONE', #31, 5.250000000000000000 ) ;
#107 = EDGE_CURVE ( 'NONE', #182, #56, #136, .T. ) ;
#108 = LINE ( 'NONE', #158, #90 ) ;
#109 = ORIENTED_EDGE ( 'NONE', *, *, #161, .T. ) ;
#110 = DIRECTION ( 'NONE',  ( 0.0000000000000000000, 0.0000000000000000000, 1.000000000000000000 ) ) ;
#111 = ORIENTED_EDGE ( 'NONE', *, *, #119, .T. ) ;
#112 = DIRECTION ( 'NONE',  ( -0.0000000000000000000, -0.0000000000000000000, -1.000000000000000000 ) ) ;
#113 = CARTESIAN_POINT ( 'NONE',  ( 0.0000000000000000000, 0.0000000000000000000, 0.0000000000000000000 ) ) ;
#114 = SURFACE_STYLE_FILL_AREA ( #12 ) ;
#115 =( NAMED_UNIT ( * ) SI_UNIT ( $, .STERADIAN. ) SOLID_ANGLE_UNIT ( ) );
#116 = STYLED_ITEM ( 'NONE', ( #135 ), #15 ) ;
#117 = FACE_BOUND ( 'NONE', #143, .T. ) ;
#118 = ORIENTED_EDGE ( 'NONE', *, *, #188, .F. ) ;
#119 = EDGE_CURVE ( 'NONE', #171, #51, #78, .T. ) ;
#120 = LINE ( 'NONE', #61, #54 ) ;
#121 =( GEOMETRIC_REPRESENTATION_CONTEXT ( 3 ) GLOBAL_UNCERTAINTY_ASSIGNED_CONTEXT ( ( #194 ) ) GLOBAL_UNIT_ASSIGNED_CONTEXT ( ( #145, #130, #115 ) ) REPRESENTATION_CONTEXT ( 'NONE', 'WORKASPACE' ) );
#122 = ORIENTED_EDGE ( 'NONE', *, *, #129, .F. ) ;
#123 =( LENGTH_UNIT ( ) NAMED_UNIT ( * ) SI_UNIT ( .MILLI., .METRE. ) );
#124 = VECTOR ( 'NONE', #112, 1000.000000000000000 ) ;
#125 = ORIENTED_EDGE ( 'NONE', *, *, #107, .T. ) ;
#126 = DIRECTION ( 'NONE',  ( -0.0000000000000000000, -0.0000000000000000000, -1.000000000000000000 ) ) ;
#127 = CARTESIAN_POINT ( 'NONE',  ( 0.0000000000000000000, 0.0000000000000000000, 0.0000000000000000000 ) ) ;
#128 = UNCERTAINTY_MEASURE_WITH_UNIT (LENGTH_MEASURE( 1.000000000000000100E-005 ), #210, 'distance_accuracy_value', 'NONE');
#129 = EDGE_CURVE ( 'NONE', #67, #70, #190, .T. ) ;
#130 =( NAMED_UNIT ( * ) PLANE_ANGLE_UNIT ( ) SI_UNIT ( $, .RADIAN. ) );
#131 = CYLINDRICAL_SURFACE ( 'NONE', #181, 5.250000000000000000 ) ;
#132 = EDGE_CURVE ( 'NONE', #67, #182, #43, .T. ) ;
#133 = FACE_OUTER_BOUND ( 'NONE', #148, .T. ) ;
#134 = CARTESIAN_POINT ( 'NONE',  ( 0.0000000000000000000, 0.0000000000000000000, 6.799999999999999800 ) ) ;
#135 = PRESENTATION_STYLE_ASSIGNMENT (( #57 ) ) ;
#136 = LINE ( 'NONE', #144, #124 ) ;
#137 = ORIENTED_EDGE ( 'NONE', *, *, #119, .F. ) ;
#138 = CARTESIAN_POINT ( 'NONE',  ( -5.250000000000000000, 0.0000000000000000000, 6.799999999999999800 ) ) ;
#139 = ADVANCED_BREP_SHAPE_REPRESENTATION ( 'XW-USI-058-A-entretoise2', ( #15, #41 ), #121 ) ;
#140 = DIRECTION ( 'NONE',  ( 1.000000000000000000, 0.0000000000000000000, 0.0000000000000000000 ) ) ;
#141 = PRESENTATION_LAYER_ASSIGNMENT (  '', '', ( #116 ) ) ;
#142 = PRESENTATION_STYLE_ASSIGNMENT (( #50 ) ) ;
#143 = EDGE_LOOP ( 'NONE', ( #196, #23 ) ) ;
#144 = CARTESIAN_POINT ( 'NONE',  ( -7.500000000000000000, 0.0000000000000000000, 6.799999999999999800 ) ) ;
#145 =( LENGTH_UNIT ( ) NAMED_UNIT ( * ) SI_UNIT ( .MILLI., .METRE. ) );
#146 = PRODUCT_DEFINITION ( 'UNKNOWN', '', #203, #52 ) ;
#147 = EDGE_CURVE ( 'NONE', #51, #171, #97, .T. ) ;
#148 = EDGE_LOOP ( 'NONE', ( #122, #35, #125, #98 ) ) ;
#149 =( GEOMETRIC_REPRESENTATION_CONTEXT ( 3 ) GLOBAL_UNCERTAINTY_ASSIGNED_CONTEXT ( ( #157 ) ) GLOBAL_UNIT_ASSIGNED_CONTEXT ( ( #123, #40, #25 ) ) REPRESENTATION_CONTEXT ( 'NONE', 'WORKASPACE' ) );
#150 = SURFACE_SIDE_STYLE ('',( #204 ) ) ;
#151 = DIRECTION ( 'NONE',  ( 0.0000000000000000000, 0.0000000000000000000, 1.000000000000000000 ) ) ;
#152 = CYLINDRICAL_SURFACE ( 'NONE', #173, 5.250000000000000000 ) ;
#153 = CLOSED_SHELL ( 'NONE', ( #36, #88, #1, #16, #17, #24 ) ) ;
#154 = CARTESIAN_POINT ( 'NONE',  ( 0.0000000000000000000, 0.0000000000000000000, 6.799999999999999800 ) ) ;
#155 = DIRECTION ( 'NONE',  ( 1.000000000000000000, 0.0000000000000000000, -0.0000000000000000000 ) ) ;
#156 = CARTESIAN_POINT ( 'NONE',  ( 0.0000000000000000000, 0.0000000000000000000, 6.799999999999999800 ) ) ;
#157 = UNCERTAINTY_MEASURE_WITH_UNIT (LENGTH_MEASURE( 1.000000000000000100E-005 ), #123, 'distance_accuracy_value', 'NONE');
#158 = CARTESIAN_POINT ( 'NONE',  ( -5.250000000000000000, 0.0000000000000000000, 6.799999999999999800 ) ) ;
#159 = DIRECTION ( 'NONE',  ( 0.0000000000000000000, 0.0000000000000000000, 1.000000000000000000 ) ) ;
#160 = EDGE_LOOP ( 'NONE', ( #109, #33 ) ) ;
#161 = EDGE_CURVE ( 'NONE', #182, #67, #164, .T. ) ;
#162 = DIRECTION ( 'NONE',  ( 1.000000000000000000, 0.0000000000000000000, 0.0000000000000000000 ) ) ;
#163 = APPLICATION_CONTEXT ( 'automotive_design' ) ;
#164 = CIRCLE ( 'NONE', #55, 7.500000000000000000 ) ;
#165 = ORIENTED_EDGE ( 'NONE', *, *, #129, .T. ) ;
#166 = PRESENTATION_LAYER_ASSIGNMENT (  '', '', ( #99 ) ) ;
#167 = AXIS2_PLACEMENT_3D ( 'NONE', #103, #93, #187 ) ;
#168 = FACE_OUTER_BOUND ( 'NONE', #19, .T. ) ;
#169 = PRODUCT_DEFINITION_SHAPE ( 'NONE', 'NONE',  #146 ) ;
#170 = CARTESIAN_POINT ( 'NONE',  ( 7.500000000000000000, 9.184850993605147900E-016, 0.0000000000000000000 ) ) ;
#171 = VERTEX_POINT ( 'NONE', #92 ) ;
#172 = CARTESIAN_POINT ( 'NONE',  ( 0.0000000000000000000, 0.0000000000000000000, 0.0000000000000000000 ) ) ;
#173 = AXIS2_PLACEMENT_3D ( 'NONE', #134, #3, #72 ) ;
#174 = VERTEX_POINT ( 'NONE', #6 ) ;
#175 = DIRECTION ( 'NONE',  ( 1.000000000000000000, 0.0000000000000000000, 0.0000000000000000000 ) ) ;
#176 = CARTESIAN_POINT ( 'NONE',  ( 5.250000000000000000, 6.429395695523604200E-016, 0.0000000000000000000 ) ) ;
#177 = VECTOR ( 'NONE', #126, 1000.000000000000000 ) ;
#178 = APPLICATION_PROTOCOL_DEFINITION ( 'draft international standard', 'automotive_design', 1998, #83 ) ;
#179 = EDGE_CURVE ( 'NONE', #56, #70, #34, .T. ) ;
#180 = COLOUR_RGB ( '',1.000000000000000000, 1.000000000000000000, 1.000000000000000000 ) ;
#181 = AXIS2_PLACEMENT_3D ( 'NONE', #154, #105, #75 ) ;
#182 = VERTEX_POINT ( 'NONE', #77 ) ;
#183 = FACE_OUTER_BOUND ( 'NONE', #91, .T. ) ;
#184 = CARTESIAN_POINT ( 'NONE',  ( 0.0000000000000000000, 0.0000000000000000000, 0.0000000000000000000 ) ) ;
#185 = ORIENTED_EDGE ( 'NONE', *, *, #208, .F. ) ;
#186 = ORIENTED_EDGE ( 'NONE', *, *, #147, .F. ) ;
#187 = DIRECTION ( 'NONE',  ( -1.000000000000000000, 0.0000000000000000000, 0.0000000000000000000 ) ) ;
#188 = EDGE_CURVE ( 'NONE', #171, #80, #120, .T. ) ;
#189 = DIRECTION ( 'NONE',  ( 0.0000000000000000000, 0.0000000000000000000, 1.000000000000000000 ) ) ;
#190 = LINE ( 'NONE', #206, #177 ) ;
#191 = DIRECTION ( 'NONE',  ( 1.000000000000000000, 0.0000000000000000000, 0.0000000000000000000 ) ) ;
#192 = MECHANICAL_DESIGN_GEOMETRIC_PRESENTATION_REPRESENTATION (  '', ( #99 ), #89 ) ;
#193 = FACE_OUTER_BOUND ( 'NONE', #65, .T. ) ;
#194 = UNCERTAINTY_MEASURE_WITH_UNIT (LENGTH_MEASURE( 1.000000000000000100E-005 ), #145, 'distance_accuracy_value', 'NONE');
#195 = EDGE_CURVE ( 'NONE', #51, #174, #108, .T. ) ;
#196 = ORIENTED_EDGE ( 'NONE', *, *, #30, .T. ) ;
#197 = DIRECTION ( 'NONE',  ( 0.0000000000000000000, 0.0000000000000000000, 1.000000000000000000 ) ) ;
#198 = PRODUCT_RELATED_PRODUCT_CATEGORY ( 'part', '', ( #79 ) ) ;
#199 = FILL_AREA_STYLE_COLOUR ( '', #180 ) ;
#200 = DIRECTION ( 'NONE',  ( 0.0000000000000000000, 0.0000000000000000000, 1.000000000000000000 ) ) ;
#201 = CARTESIAN_POINT ( 'NONE',  ( -7.500000000000000000, 0.0000000000000000000, 0.0000000000000000000 ) ) ;
#202 = DIRECTION ( 'NONE',  ( 0.0000000000000000000, 0.0000000000000000000, 1.000000000000000000 ) ) ;
#203 = PRODUCT_DEFINITION_FORMATION_WITH_SPECIFIED_SOURCE ( 'ANY', '', #79, .NOT_KNOWN. ) ;
#204 = SURFACE_STYLE_FILL_AREA ( #58 ) ;
#205 = CARTESIAN_POINT ( 'NONE',  ( 7.500000000000000000, 9.184850993605147900E-016, 6.799999999999999800 ) ) ;
#206 = CARTESIAN_POINT ( 'NONE',  ( 7.500000000000000000, 9.184850993605147900E-016, 6.799999999999999800 ) ) ;
#207 = FILL_AREA_STYLE_COLOUR ( '', #18 ) ;
#208 = EDGE_CURVE ( 'NONE', #80, #174, #63, .T. ) ;
#209 = SHAPE_DEFINITION_REPRESENTATION ( #169, #139 ) ;
#210 =( LENGTH_UNIT ( ) NAMED_UNIT ( * ) SI_UNIT ( .MILLI., .METRE. ) );
#211 = SURFACE_SIDE_STYLE ('',( #114 ) ) ;
#212 = FACE_OUTER_BOUND ( 'NONE', #160, .T. ) ;
#213 = AXIS2_PLACEMENT_3D ( 'NONE', #62, #110, #46 ) ;
#214 = ORIENTED_EDGE ( 'NONE', *, *, #49, .F. ) ;
ENDSEC;
END-ISO-10303-21;
