ISO-10303-21;
HEADER;
FILE_DESCRIPTION (( 'STEP AP214' ),
    '1' );
FILE_NAME ('Douille pneu 8x.STEP',
    '2020-09-07T12:00:43',
    ( '' ),
    ( '' ),
    'SwSTEP 2.0',
    'SolidWorks 2018',
    '' );
FILE_SCHEMA (( 'AUTOMOTIVE_DESIGN' ));
ENDSEC;

DATA;
#1 = CYLINDRICAL_SURFACE ( 'NONE', #86, 54.94500000000000739 ) ;
#2 = ORIENTED_EDGE ( 'NONE', *, *, #117, .T. ) ;
#3 = ORIENTED_EDGE ( 'NONE', *, *, #9, .F. ) ;
#4 = DIRECTION ( 'NONE',  ( 1.000000000000000000, 0.0000000000000000000, 0.0000000000000000000 ) ) ;
#5 = CARTESIAN_POINT ( 'NONE',  ( 0.0000000000000000000, 0.0000000000000000000, 0.0000000000000000000 ) ) ;
#6 = ADVANCED_FACE ( 'NONE', ( #26 ), #67, .T. ) ;
#7 = DIRECTION ( 'NONE',  ( 1.000000000000000000, 0.0000000000000000000, 0.0000000000000000000 ) ) ;
#8 = ORIENTED_EDGE ( 'NONE', *, *, #188, .F. ) ;
#9 = EDGE_CURVE ( 'NONE', #18, #336, #286, .T. ) ;
#10 =( NAMED_UNIT ( * ) PLANE_ANGLE_UNIT ( ) SI_UNIT ( $, .RADIAN. ) );
#11 = CIRCLE ( 'NONE', #262, 64.65000000000000568 ) ;
#12 = EDGE_LOOP ( 'NONE', ( #3, #268, #222, #142 ) ) ;
#13 = SURFACE_SIDE_STYLE ('',( #230 ) ) ;
#14 = DIRECTION ( 'NONE',  ( 1.000000000000000000, 0.0000000000000000000, 0.0000000000000000000 ) ) ;
#15 = DIRECTION ( 'NONE',  ( -0.0000000000000000000, -0.0000000000000000000, 1.000000000000000000 ) ) ;
#16 = LINE ( 'NONE', #260, #362 ) ;
#17 = ORIENTED_EDGE ( 'NONE', *, *, #209, .T. ) ;
#18 = VERTEX_POINT ( 'NONE', #369 ) ;
#19 =( GEOMETRIC_REPRESENTATION_CONTEXT ( 3 ) GLOBAL_UNCERTAINTY_ASSIGNED_CONTEXT ( ( #43 ) ) GLOBAL_UNIT_ASSIGNED_CONTEXT ( ( #91, #356, #41 ) ) REPRESENTATION_CONTEXT ( 'NONE', 'WORKASPACE' ) );
#20 = FACE_OUTER_BOUND ( 'NONE', #214, .T. ) ;
#21 = ORIENTED_EDGE ( 'NONE', *, *, #88, .T. ) ;
#22 = AXIS2_PLACEMENT_3D ( 'NONE', #277, #223, #280 ) ;
#23 = DIRECTION ( 'NONE',  ( -0.0000000000000000000, -0.0000000000000000000, 1.000000000000000000 ) ) ;
#24 = ADVANCED_FACE ( 'NONE', ( #346 ), #176, .T. ) ;
#25 = VERTEX_POINT ( 'NONE', #339 ) ;
#26 = FACE_OUTER_BOUND ( 'NONE', #299, .T. ) ;
#27 = DIRECTION ( 'NONE',  ( -0.0000000000000000000, -0.0000000000000000000, 1.000000000000000000 ) ) ;
#28 = DIRECTION ( 'NONE',  ( -0.0000000000000000000, -0.0000000000000000000, 1.000000000000000000 ) ) ;
#29 = EDGE_CURVE ( 'NONE', #367, #305, #201, .T. ) ;
#30 = CIRCLE ( 'NONE', #212, 54.94500000000000739 ) ;
#31 =( NAMED_UNIT ( * ) PLANE_ANGLE_UNIT ( ) SI_UNIT ( $, .RADIAN. ) );
#32 = VERTEX_POINT ( 'NONE', #187 ) ;
#33 = DIRECTION ( 'NONE',  ( -0.0000000000000000000, -0.0000000000000000000, 1.000000000000000000 ) ) ;
#34 = ORIENTED_EDGE ( 'NONE', *, *, #269, .T. ) ;
#35 = CARTESIAN_POINT ( 'NONE',  ( 0.0000000000000000000, 0.0000000000000000000, 0.0000000000000000000 ) ) ;
#36 = CARTESIAN_POINT ( 'NONE',  ( 64.65000000000000568, 0.0000000000000000000, -42.92000000000001592 ) ) ;
#37 = DIRECTION ( 'NONE',  ( -0.0000000000000000000, -0.0000000000000000000, 1.000000000000000000 ) ) ;
#38 = COLOUR_RGB ( '',0.7921568627450980005, 0.8196078431372548767, 0.9333333333333333481 ) ;
#39 = EDGE_LOOP ( 'NONE', ( #94, #66 ) ) ;
#40 = DIRECTION ( 'NONE',  ( -0.0000000000000000000, -0.0000000000000000000, 1.000000000000000000 ) ) ;
#41 =( NAMED_UNIT ( * ) SI_UNIT ( $, .STERADIAN. ) SOLID_ANGLE_UNIT ( ) );
#42 = DIRECTION ( 'NONE',  ( 0.0000000000000000000, 0.0000000000000000000, 1.000000000000000000 ) ) ;
#43 = UNCERTAINTY_MEASURE_WITH_UNIT (LENGTH_MEASURE( 1.000000000000000082E-05 ), #91, 'distance_accuracy_value', 'NONE');
#44 = ORIENTED_EDGE ( 'NONE', *, *, #269, .F. ) ;
#45 = CARTESIAN_POINT ( 'NONE',  ( 0.0000000000000000000, 0.0000000000000000000, -42.92000000000001592 ) ) ;
#46 = ORIENTED_EDGE ( 'NONE', *, *, #246, .F. ) ;
#47 = AXIS2_PLACEMENT_3D ( 'NONE', #270, #50, #101 ) ;
#48 = FACE_OUTER_BOUND ( 'NONE', #316, .T. ) ;
#49 = ORIENTED_EDGE ( 'NONE', *, *, #266, .T. ) ;
#50 = DIRECTION ( 'NONE',  ( -0.0000000000000000000, -0.0000000000000000000, 1.000000000000000000 ) ) ;
#51 = CARTESIAN_POINT ( 'NONE',  ( 0.0000000000000000000, 0.0000000000000000000, 0.0000000000000000000 ) ) ;
#52 = AXIS2_PLACEMENT_3D ( 'NONE', #190, #248, #74 ) ;
#53 = FILL_AREA_STYLE_COLOUR ( '', #38 ) ;
#54 = FACE_BOUND ( 'NONE', #126, .T. ) ;
#55 = CARTESIAN_POINT ( 'NONE',  ( 0.0000000000000000000, 0.0000000000000000000, -71.34999999999999432 ) ) ;
#56 = EDGE_CURVE ( 'NONE', #98, #336, #366, .T. ) ;
#57 = PRESENTATION_STYLE_ASSIGNMENT (( #340 ) ) ;
#58 = ORIENTED_EDGE ( 'NONE', *, *, #209, .F. ) ;
#59 = DIRECTION ( 'NONE',  ( -0.0000000000000000000, -0.0000000000000000000, 1.000000000000000000 ) ) ;
#60 = ADVANCED_FACE ( 'NONE', ( #372 ), #133, .F. ) ;
#61 = FACE_OUTER_BOUND ( 'NONE', #155, .T. ) ;
#62 = DIRECTION ( 'NONE',  ( -1.000000000000000000, 0.0000000000000000000, -0.0000000000000000000 ) ) ;
#63 = AXIS2_PLACEMENT_3D ( 'NONE', #307, #343, #75 ) ;
#64 = CARTESIAN_POINT ( 'NONE',  ( -62.17999999999999261, 7.614853797098240221E-15, -42.92000000000001592 ) ) ;
#65 = ORIENTED_EDGE ( 'NONE', *, *, #258, .T. ) ;
#66 = ORIENTED_EDGE ( 'NONE', *, *, #322, .T. ) ;
#67 = CYLINDRICAL_SURFACE ( 'NONE', #47, 55.72500000000000142 ) ;
#68 = AXIS2_PLACEMENT_3D ( 'NONE', #45, #15, #122 ) ;
#69 = EDGE_LOOP ( 'NONE', ( #263, #207 ) ) ;
#70 = ORIENTED_EDGE ( 'NONE', *, *, #151, .F. ) ;
#71 = AXIS2_PLACEMENT_3D ( 'NONE', #80, #283, #110 ) ;
#72 = CIRCLE ( 'NONE', #22, 62.17999999999999972 ) ;
#73 = CARTESIAN_POINT ( 'NONE',  ( 0.0000000000000000000, 0.0000000000000000000, 0.0000000000000000000 ) ) ;
#74 = DIRECTION ( 'NONE',  ( -1.000000000000000000, 0.0000000000000000000, -0.0000000000000000000 ) ) ;
#75 = DIRECTION ( 'NONE',  ( 1.000000000000000000, 0.0000000000000000000, 0.0000000000000000000 ) ) ;
#76 = EDGE_CURVE ( 'NONE', #177, #342, #210, .T. ) ;
#77 = DIRECTION ( 'NONE',  ( -0.0000000000000000000, -0.0000000000000000000, 1.000000000000000000 ) ) ;
#78 = LINE ( 'NONE', #218, #125 ) ;
#79 = ORIENTED_EDGE ( 'NONE', *, *, #88, .F. ) ;
#80 = CARTESIAN_POINT ( 'NONE',  ( 62.17999999999999972, 0.0000000000000000000, -71.34999999999999432 ) ) ;
#81 = CARTESIAN_POINT ( 'NONE',  ( 0.0000000000000000000, 0.0000000000000000000, -72.05999999999998806 ) ) ;
#82 = ADVANCED_FACE ( 'NONE', ( #20 ), #1, .F. ) ;
#83 = DIRECTION ( 'NONE',  ( -0.0000000000000000000, -0.0000000000000000000, 1.000000000000000000 ) ) ;
#84 = ORIENTED_EDGE ( 'NONE', *, *, #117, .F. ) ;
#85 = CARTESIAN_POINT ( 'NONE',  ( 54.94500000000000739, 0.0000000000000000000, 0.0000000000000000000 ) ) ;
#86 = AXIS2_PLACEMENT_3D ( 'NONE', #338, #27, #306 ) ;
#87 = CARTESIAN_POINT ( 'NONE',  ( 0.0000000000000000000, 0.0000000000000000000, -72.05999999999998806 ) ) ;
#88 = EDGE_CURVE ( 'NONE', #121, #159, #78, .T. ) ;
#89 = CIRCLE ( 'NONE', #102, 62.17999999999999972 ) ;
#90 = EDGE_LOOP ( 'NONE', ( #79, #290, #373, #84 ) ) ;
#91 =( LENGTH_UNIT ( ) NAMED_UNIT ( * ) SI_UNIT ( .MILLI., .METRE. ) );
#92 = STYLED_ITEM ( 'NONE', ( #57 ), #170 ) ;
#93 = DIRECTION ( 'NONE',  ( 1.000000000000000000, 0.0000000000000000000, 0.0000000000000000000 ) ) ;
#94 = ORIENTED_EDGE ( 'NONE', *, *, #76, .T. ) ;
#95 = DIRECTION ( 'NONE',  ( 1.000000000000000000, 0.0000000000000000000, 0.0000000000000000000 ) ) ;
#96 = CIRCLE ( 'NONE', #289, 55.72500000000000142 ) ;
#97 = AXIS2_PLACEMENT_3D ( 'NONE', #135, #140, #136 ) ;
#98 = VERTEX_POINT ( 'NONE', #164 ) ;
#99 = DIRECTION ( 'NONE',  ( 1.000000000000000000, 0.0000000000000000000, 0.0000000000000000000 ) ) ;
#100 = ORIENTED_EDGE ( 'NONE', *, *, #266, .F. ) ;
#101 = DIRECTION ( 'NONE',  ( 1.000000000000000000, 0.0000000000000000000, 0.0000000000000000000 ) ) ;
#102 = AXIS2_PLACEMENT_3D ( 'NONE', #315, #83, #349 ) ;
#103 = FILL_AREA_STYLE ('',( #53 ) ) ;
#104 = CIRCLE ( 'NONE', #68, 62.17999999999999261 ) ;
#105 = CYLINDRICAL_SURFACE ( 'NONE', #137, 64.65000000000000568 ) ;
#106 = DIRECTION ( 'NONE',  ( -0.0000000000000000000, -0.0000000000000000000, 1.000000000000000000 ) ) ;
#107 = ORIENTED_EDGE ( 'NONE', *, *, #330, .F. ) ;
#108 = CARTESIAN_POINT ( 'NONE',  ( -54.94500000000000739, 6.728821837915133728E-15, 0.0000000000000000000 ) ) ;
#109 = PRESENTATION_LAYER_ASSIGNMENT (  '', '', ( #92 ) ) ;
#110 = DIRECTION ( 'NONE',  ( -1.000000000000000000, 0.0000000000000000000, -0.0000000000000000000 ) ) ;
#111 = ORIENTED_EDGE ( 'NONE', *, *, #237, .T. ) ;
#112 = ORIENTED_EDGE ( 'NONE', *, *, #188, .T. ) ;
#113 = CARTESIAN_POINT ( 'NONE',  ( -62.17999999999999972, 7.614853797098241799E-15, -71.35000000000000853 ) ) ;
#114 = DIRECTION ( 'NONE',  ( 1.000000000000000000, 0.0000000000000000000, 0.0000000000000000000 ) ) ;
#115 = PLANE ( 'NONE',  #192 ) ;
#116 = ORIENTED_EDGE ( 'NONE', *, *, #202, .T. ) ;
#117 = EDGE_CURVE ( 'NONE', #159, #305, #152, .T. ) ;
#118 = APPLICATION_CONTEXT ( 'automotive_design' ) ;
#119 = ADVANCED_BREP_SHAPE_REPRESENTATION ( 'Douille pneu 8x', ( #170, #146 ), #19 ) ;
#120 = CIRCLE ( 'NONE', #168, 55.72500000000000142 ) ;
#121 = VERTEX_POINT ( 'NONE', #161 ) ;
#122 = DIRECTION ( 'NONE',  ( 1.000000000000000000, 0.0000000000000000000, 0.0000000000000000000 ) ) ;
#123 = STYLED_ITEM ( 'NONE', ( #297 ), #119 ) ;
#124 = PRODUCT_DEFINITION_SHAPE ( 'NONE', 'NONE',  #313 ) ;
#125 = VECTOR ( 'NONE', #33, 1000.000000000000000 ) ;
#126 = EDGE_LOOP ( 'NONE', ( #34, #129 ) ) ;
#127 = EDGE_CURVE ( 'NONE', #303, #255, #72, .T. ) ;
#128 = AXIS2_PLACEMENT_3D ( 'NONE', #81, #321, #229 ) ;
#129 = ORIENTED_EDGE ( 'NONE', *, *, #364, .T. ) ;
#130 = CLOSED_SHELL ( 'NONE', ( #6, #198, #345, #82, #60, #317, #147, #224, #252, #158, #24, #131 ) ) ;
#131 = ADVANCED_FACE ( 'NONE', ( #54, #267 ), #138, .T. ) ;
#132 = DIRECTION ( 'NONE',  ( -0.0000000000000000000, -0.0000000000000000000, 1.000000000000000000 ) ) ;
#133 = CYLINDRICAL_SURFACE ( 'NONE', #296, 54.94500000000000739 ) ;
#134 = ORIENTED_EDGE ( 'NONE', *, *, #151, .T. ) ;
#135 = CARTESIAN_POINT ( 'NONE',  ( 0.0000000000000000000, 0.0000000000000000000, -71.34999999999999432 ) ) ;
#136 = DIRECTION ( 'NONE',  ( 1.000000000000000000, 0.0000000000000000000, 0.0000000000000000000 ) ) ;
#137 = AXIS2_PLACEMENT_3D ( 'NONE', #374, #106, #4 ) ;
#138 = PLANE ( 'NONE',  #52 ) ;
#139 = FACE_BOUND ( 'NONE', #39, .T. ) ;
#140 = DIRECTION ( 'NONE',  ( -0.0000000000000000000, -0.0000000000000000000, 1.000000000000000000 ) ) ;
#141 = ORIENTED_EDGE ( 'NONE', *, *, #29, .F. ) ;
#142 = ORIENTED_EDGE ( 'NONE', *, *, #258, .F. ) ;
#143 = FACE_OUTER_BOUND ( 'NONE', #12, .T. ) ;
#144 = CARTESIAN_POINT ( 'NONE',  ( 0.0000000000000000000, 0.0000000000000000000, 0.0000000000000000000 ) ) ;
#145 = PRESENTATION_LAYER_ASSIGNMENT (  '', '', ( #123 ) ) ;
#146 = AXIS2_PLACEMENT_3D ( 'NONE', #208, #42, #93 ) ;
#147 = ADVANCED_FACE ( 'NONE', ( #143 ), #105, .T. ) ;
#148 = CARTESIAN_POINT ( 'NONE',  ( 62.17999999999999972, 0.0000000000000000000, 0.0000000000000000000 ) ) ;
#149 = VECTOR ( 'NONE', #23, 1000.000000000000000 ) ;
#150 = ORIENTED_EDGE ( 'NONE', *, *, #278, .T. ) ;
#151 = EDGE_CURVE ( 'NONE', #305, #159, #96, .T. ) ;
#152 = CIRCLE ( 'NONE', #97, 55.72500000000000142 ) ;
#153 =( GEOMETRIC_REPRESENTATION_CONTEXT ( 3 ) GLOBAL_UNCERTAINTY_ASSIGNED_CONTEXT ( ( #334 ) ) GLOBAL_UNIT_ASSIGNED_CONTEXT ( ( #163, #31, #242 ) ) REPRESENTATION_CONTEXT ( 'NONE', 'WORKASPACE' ) );
#154 = CIRCLE ( 'NONE', #284, 64.65000000000000568 ) ;
#155 = EDGE_LOOP ( 'NONE', ( #291, #195 ) ) ;
#156 = CARTESIAN_POINT ( 'NONE',  ( 55.72500000000000142, 0.0000000000000000000, 0.0000000000000000000 ) ) ;
#157 = DIRECTION ( 'NONE',  ( -0.0000000000000000000, -0.0000000000000000000, 1.000000000000000000 ) ) ;
#158 = ADVANCED_FACE ( 'NONE', ( #185, #360 ), #241, .T. ) ;
#159 = VERTEX_POINT ( 'NONE', #216 ) ;
#160 = DIRECTION ( 'NONE',  ( -0.0000000000000000000, -0.0000000000000000000, 1.000000000000000000 ) ) ;
#161 = CARTESIAN_POINT ( 'NONE',  ( -55.72500000000000142, 6.824344288248626228E-15, -72.05999999999998806 ) ) ;
#162 = EDGE_CURVE ( 'NONE', #368, #25, #325, .T. ) ;
#163 =( LENGTH_UNIT ( ) NAMED_UNIT ( * ) SI_UNIT ( .MILLI., .METRE. ) );
#164 = CARTESIAN_POINT ( 'NONE',  ( 64.65000000000000568, 0.0000000000000000000, 0.0000000000000000000 ) ) ;
#165 = VECTOR ( 'NONE', #314, 1000.000000000000000 ) ;
#166 = ORIENTED_EDGE ( 'NONE', *, *, #246, .T. ) ;
#167 = CARTESIAN_POINT ( 'NONE',  ( 54.94500000000000739, 0.0000000000000000000, 0.0000000000000000000 ) ) ;
#168 = AXIS2_PLACEMENT_3D ( 'NONE', #87, #59, #320 ) ;
#169 = DIRECTION ( 'NONE',  ( -0.0000000000000000000, -0.0000000000000000000, 1.000000000000000000 ) ) ;
#170 = MANIFOLD_SOLID_BREP ( 'Révolution1', #130 ) ;
#171 = DIRECTION ( 'NONE',  ( -0.0000000000000000000, -0.0000000000000000000, 1.000000000000000000 ) ) ;
#172 = ORIENTED_EDGE ( 'NONE', *, *, #127, .T. ) ;
#173 = DIRECTION ( 'NONE',  ( 1.000000000000000000, 0.0000000000000000000, 0.0000000000000000000 ) ) ;
#174 = DIRECTION ( 'NONE',  ( -0.0000000000000000000, -0.0000000000000000000, 1.000000000000000000 ) ) ;
#175 = DIRECTION ( 'NONE',  ( -0.0000000000000000000, -0.0000000000000000000, 1.000000000000000000 ) ) ;
#176 = CYLINDRICAL_SURFACE ( 'NONE', #225, 55.72500000000000142 ) ;
#177 = VERTEX_POINT ( 'NONE', #219 ) ;
#178 = FILL_AREA_STYLE_COLOUR ( '', #275 ) ;
#179 = AXIS2_PLACEMENT_3D ( 'NONE', #245, #77, #279 ) ;
#180 = PRODUCT_RELATED_PRODUCT_CATEGORY ( 'part', '', ( #183 ) ) ;
#181 = EDGE_LOOP ( 'NONE', ( #58, #348 ) ) ;
#182 = CARTESIAN_POINT ( 'NONE',  ( -54.94500000000000028, 6.728821837915132939E-15, -72.06000000000000227 ) ) ;
#183 = PRODUCT ( 'Douille pneu 8x', 'Douille pneu 8x', '', ( #328 ) ) ;
#184 = MECHANICAL_DESIGN_GEOMETRIC_PRESENTATION_REPRESENTATION (  '', ( #123 ), #273 ) ;
#185 = FACE_BOUND ( 'NONE', #236, .T. ) ;
#186 = EDGE_LOOP ( 'NONE', ( #46, #272 ) ) ;
#187 = CARTESIAN_POINT ( 'NONE',  ( 54.94500000000000028, 0.0000000000000000000, -72.06000000000000227 ) ) ;
#188 = EDGE_CURVE ( 'NONE', #32, #361, #238, .T. ) ;
#189 = VERTEX_POINT ( 'NONE', #344 ) ;
#190 = CARTESIAN_POINT ( 'NONE',  ( 55.72500000000000142, 0.0000000000000000000, -72.05999999999998806 ) ) ;
#191 = EDGE_LOOP ( 'NONE', ( #172, #150, #211, #100 ) ) ;
#192 = AXIS2_PLACEMENT_3D ( 'NONE', #36, #196, #62 ) ;
#193 = DIRECTION ( 'NONE',  ( 1.000000000000000000, 0.0000000000000000000, 0.0000000000000000000 ) ) ;
#194 = FACE_OUTER_BOUND ( 'NONE', #191, .T. ) ;
#195 = ORIENTED_EDGE ( 'NONE', *, *, #254, .F. ) ;
#196 = DIRECTION ( 'NONE',  ( 0.0000000000000000000, 0.0000000000000000000, -1.000000000000000000 ) ) ;
#197 = DIRECTION ( 'NONE',  ( 1.000000000000000000, 0.0000000000000000000, 0.0000000000000000000 ) ) ;
#198 = ADVANCED_FACE ( 'NONE', ( #194 ), #261, .T. ) ;
#199 = DIRECTION ( 'NONE',  ( -0.0000000000000000000, -0.0000000000000000000, 1.000000000000000000 ) ) ;
#200 = DIRECTION ( 'NONE',  ( -0.0000000000000000000, -0.0000000000000000000, 1.000000000000000000 ) ) ;
#201 = LINE ( 'NONE', #156, #149 ) ;
#202 = EDGE_CURVE ( 'NONE', #255, #303, #89, .T. ) ;
#203 = EDGE_LOOP ( 'NONE', ( #240, #116, #49, #239 ) ) ;
#204 = DIRECTION ( 'NONE',  ( 1.000000000000000000, 0.0000000000000000000, 0.0000000000000000000 ) ) ;
#205 = PRODUCT_DEFINITION_CONTEXT ( 'detailed design', #293, 'design' ) ;
#206 = CYLINDRICAL_SURFACE ( 'NONE', #358, 62.17999999999999972 ) ;
#207 = ORIENTED_EDGE ( 'NONE', *, *, #202, .F. ) ;
#208 = CARTESIAN_POINT ( 'NONE',  ( 0.0000000000000000000, 0.0000000000000000000, 0.0000000000000000000 ) ) ;
#209 = EDGE_CURVE ( 'NONE', #367, #121, #228, .T. ) ;
#210 = CIRCLE ( 'NONE', #63, 62.17999999999999261 ) ;
#211 = ORIENTED_EDGE ( 'NONE', *, *, #76, .F. ) ;
#212 = AXIS2_PLACEMENT_3D ( 'NONE', #319, #174, #114 ) ;
#213 = VECTOR ( 'NONE', #132, 1000.000000000000000 ) ;
#214 = EDGE_LOOP ( 'NONE', ( #331, #318, #111, #8 ) ) ;
#215 = VECTOR ( 'NONE', #175, 1000.000000000000000 ) ;
#216 = CARTESIAN_POINT ( 'NONE',  ( -55.72500000000000142, 6.824344288248626228E-15, -71.34999999999999432 ) ) ;
#217 = EDGE_CURVE ( 'NONE', #121, #367, #120, .T. ) ;
#218 = CARTESIAN_POINT ( 'NONE',  ( -55.72500000000000142, 6.824344288248626228E-15, 0.0000000000000000000 ) ) ;
#219 = CARTESIAN_POINT ( 'NONE',  ( 62.17999999999999261, 0.0000000000000000000, -42.92000000000001592 ) ) ;
#220 = CIRCLE ( 'NONE', #333, 54.94500000000000028 ) ;
#221 = CIRCLE ( 'NONE', #304, 64.65000000000000568 ) ;
#222 = ORIENTED_EDGE ( 'NONE', *, *, #330, .T. ) ;
#223 = DIRECTION ( 'NONE',  ( -0.0000000000000000000, -0.0000000000000000000, 1.000000000000000000 ) ) ;
#224 = ADVANCED_FACE ( 'NONE', ( #139, #61 ), #115, .T. ) ;
#225 = AXIS2_PLACEMENT_3D ( 'NONE', #300, #365, #99 ) ;
#226 = CARTESIAN_POINT ( 'NONE',  ( 0.0000000000000000000, 0.0000000000000000000, -42.92000000000001592 ) ) ;
#227 = CARTESIAN_POINT ( 'NONE',  ( 55.72500000000000142, 0.0000000000000000000, -71.34999999999999432 ) ) ;
#228 = CIRCLE ( 'NONE', #128, 55.72500000000000142 ) ;
#229 = DIRECTION ( 'NONE',  ( 1.000000000000000000, 0.0000000000000000000, 0.0000000000000000000 ) ) ;
#230 = SURFACE_STYLE_FILL_AREA ( #264 ) ;
#231 = CIRCLE ( 'NONE', #301, 54.94500000000000028 ) ;
#232 = MECHANICAL_DESIGN_GEOMETRIC_PRESENTATION_REPRESENTATION (  '', ( #92 ), #153 ) ;
#233 = EDGE_LOOP ( 'NONE', ( #311, #44, #112, #166 ) ) ;
#234 = APPLICATION_PROTOCOL_DEFINITION ( 'draft international standard', 'automotive_design', 1998, #293 ) ;
#235 = CARTESIAN_POINT ( 'NONE',  ( 0.0000000000000000000, 0.0000000000000000000, -72.06000000000000227 ) ) ;
#236 = EDGE_LOOP ( 'NONE', ( #134, #2 ) ) ;
#237 = EDGE_CURVE ( 'NONE', #25, #361, #30, .T. ) ;
#238 = LINE ( 'NONE', #167, #165 ) ;
#239 = ORIENTED_EDGE ( 'NONE', *, *, #322, .F. ) ;
#240 = ORIENTED_EDGE ( 'NONE', *, *, #278, .F. ) ;
#241 = PLANE ( 'NONE',  #71 ) ;
#242 =( NAMED_UNIT ( * ) SI_UNIT ( $, .STERADIAN. ) SOLID_ANGLE_UNIT ( ) );
#243 = VECTOR ( 'NONE', #28, 1000.000000000000000 ) ;
#244 = ORIENTED_EDGE ( 'NONE', *, *, #9, .T. ) ;
#245 = CARTESIAN_POINT ( 'NONE',  ( 0.0000000000000000000, 0.0000000000000000000, 0.0000000000000000000 ) ) ;
#246 = EDGE_CURVE ( 'NONE', #361, #25, #309, .T. ) ;
#247 = DIRECTION ( 'NONE',  ( -0.0000000000000000000, -0.0000000000000000000, 1.000000000000000000 ) ) ;
#248 = DIRECTION ( 'NONE',  ( 0.0000000000000000000, 0.0000000000000000000, -1.000000000000000000 ) ) ;
#249 = DIRECTION ( 'NONE',  ( -0.0000000000000000000, -0.0000000000000000000, 1.000000000000000000 ) ) ;
#250 = EDGE_LOOP ( 'NONE', ( #326, #244, #282, #107 ) ) ;
#251 = DIRECTION ( 'NONE',  ( 1.000000000000000000, 0.0000000000000000000, 0.0000000000000000000 ) ) ;
#252 = ADVANCED_FACE ( 'NONE', ( #271 ), #206, .T. ) ;
#253 = PLANE ( 'NONE',  #350 ) ;
#254 = EDGE_CURVE ( 'NONE', #18, #189, #11, .T. ) ;
#255 = VERTEX_POINT ( 'NONE', #113 ) ;
#256 = DIRECTION ( 'NONE',  ( -0.0000000000000000000, -0.0000000000000000000, 1.000000000000000000 ) ) ;
#257 = DIRECTION ( 'NONE',  ( -0.0000000000000000000, -0.0000000000000000000, 1.000000000000000000 ) ) ;
#258 = EDGE_CURVE ( 'NONE', #336, #98, #154, .T. ) ;
#259 =( NAMED_UNIT ( * ) SI_UNIT ( $, .STERADIAN. ) SOLID_ANGLE_UNIT ( ) );
#260 = CARTESIAN_POINT ( 'NONE',  ( 64.65000000000000568, 0.0000000000000000000, 0.0000000000000000000 ) ) ;
#261 = CYLINDRICAL_SURFACE ( 'NONE', #179, 62.17999999999999972 ) ;
#262 = AXIS2_PLACEMENT_3D ( 'NONE', #347, #199, #288 ) ;
#263 = ORIENTED_EDGE ( 'NONE', *, *, #127, .F. ) ;
#264 = FILL_AREA_STYLE ('',( #178 ) ) ;
#265 = DIRECTION ( 'NONE',  ( 1.000000000000000000, 0.0000000000000000000, 0.0000000000000000000 ) ) ;
#266 = EDGE_CURVE ( 'NONE', #303, #177, #295, .T. ) ;
#267 = FACE_OUTER_BOUND ( 'NONE', #181, .T. ) ;
#268 = ORIENTED_EDGE ( 'NONE', *, *, #254, .T. ) ;
#269 = EDGE_CURVE ( 'NONE', #32, #368, #231, .T. ) ;
#270 = CARTESIAN_POINT ( 'NONE',  ( 0.0000000000000000000, 0.0000000000000000000, 0.0000000000000000000 ) ) ;
#271 = FACE_OUTER_BOUND ( 'NONE', #203, .T. ) ;
#272 = ORIENTED_EDGE ( 'NONE', *, *, #237, .F. ) ;
#273 =( GEOMETRIC_REPRESENTATION_CONTEXT ( 3 ) GLOBAL_UNCERTAINTY_ASSIGNED_CONTEXT ( ( #355 ) ) GLOBAL_UNIT_ASSIGNED_CONTEXT ( ( #332, #10, #259 ) ) REPRESENTATION_CONTEXT ( 'NONE', 'WORKASPACE' ) );
#274 = CARTESIAN_POINT ( 'NONE',  ( -64.65000000000000568, 7.917341556487637741E-15, 0.0000000000000000000 ) ) ;
#275 = COLOUR_RGB ( '',0.7921568627450980005, 0.8196078431372548767, 0.9333333333333333481 ) ;
#276 = LINE ( 'NONE', #324, #298 ) ;
#277 = CARTESIAN_POINT ( 'NONE',  ( 0.0000000000000000000, 0.0000000000000000000, -71.35000000000000853 ) ) ;
#278 = EDGE_CURVE ( 'NONE', #255, #342, #276, .T. ) ;
#279 = DIRECTION ( 'NONE',  ( 1.000000000000000000, 0.0000000000000000000, 0.0000000000000000000 ) ) ;
#280 = DIRECTION ( 'NONE',  ( 1.000000000000000000, 0.0000000000000000000, 0.0000000000000000000 ) ) ;
#281 = ORIENTED_EDGE ( 'NONE', *, *, #56, .T. ) ;
#282 = ORIENTED_EDGE ( 'NONE', *, *, #56, .F. ) ;
#283 = DIRECTION ( 'NONE',  ( 0.0000000000000000000, 0.0000000000000000000, -1.000000000000000000 ) ) ;
#284 = AXIS2_PLACEMENT_3D ( 'NONE', #35, #200, #197 ) ;
#285 = CARTESIAN_POINT ( 'NONE',  ( 0.0000000000000000000, 0.0000000000000000000, 0.0000000000000000000 ) ) ;
#286 = LINE ( 'NONE', #274, #213 ) ;
#287 = CARTESIAN_POINT ( 'NONE',  ( 62.17999999999999972, 0.0000000000000000000, -71.35000000000000853 ) ) ;
#288 = DIRECTION ( 'NONE',  ( 1.000000000000000000, 0.0000000000000000000, 0.0000000000000000000 ) ) ;
#289 = AXIS2_PLACEMENT_3D ( 'NONE', #55, #247, #193 ) ;
#290 = ORIENTED_EDGE ( 'NONE', *, *, #217, .T. ) ;
#291 = ORIENTED_EDGE ( 'NONE', *, *, #308, .F. ) ;
#292 = CARTESIAN_POINT ( 'NONE',  ( 54.94500000000000739, 0.0000000000000000000, 0.0000000000000000000 ) ) ;
#293 = APPLICATION_CONTEXT ( 'automotive_design' ) ;
#294 = CARTESIAN_POINT ( 'NONE',  ( -64.65000000000000568, 7.917341556487637741E-15, 0.0000000000000000000 ) ) ;
#295 = LINE ( 'NONE', #148, #215 ) ;
#296 = AXIS2_PLACEMENT_3D ( 'NONE', #73, #157, #302 ) ;
#297 = PRESENTATION_STYLE_ASSIGNMENT (( #329 ) ) ;
#298 = VECTOR ( 'NONE', #169, 1000.000000000000000 ) ;
#299 = EDGE_LOOP ( 'NONE', ( #17, #21, #70, #141 ) ) ;
#300 = CARTESIAN_POINT ( 'NONE',  ( 0.0000000000000000000, 0.0000000000000000000, 0.0000000000000000000 ) ) ;
#301 = AXIS2_PLACEMENT_3D ( 'NONE', #354, #256, #204 ) ;
#302 = DIRECTION ( 'NONE',  ( 1.000000000000000000, 0.0000000000000000000, 0.0000000000000000000 ) ) ;
#303 = VERTEX_POINT ( 'NONE', #287 ) ;
#304 = AXIS2_PLACEMENT_3D ( 'NONE', #226, #171, #251 ) ;
#305 = VERTEX_POINT ( 'NONE', #227 ) ;
#306 = DIRECTION ( 'NONE',  ( 1.000000000000000000, 0.0000000000000000000, 0.0000000000000000000 ) ) ;
#307 = CARTESIAN_POINT ( 'NONE',  ( 0.0000000000000000000, 0.0000000000000000000, -42.92000000000001592 ) ) ;
#308 = EDGE_CURVE ( 'NONE', #189, #18, #221, .T. ) ;
#309 = CIRCLE ( 'NONE', #312, 54.94500000000000739 ) ;
#310 = SURFACE_SIDE_STYLE ('',( #353 ) ) ;
#311 = ORIENTED_EDGE ( 'NONE', *, *, #162, .F. ) ;
#312 = AXIS2_PLACEMENT_3D ( 'NONE', #144, #249, #173 ) ;
#313 = PRODUCT_DEFINITION ( 'UNKNOWN', '', #323, #205 ) ;
#314 = DIRECTION ( 'NONE',  ( -0.0000000000000000000, -0.0000000000000000000, 1.000000000000000000 ) ) ;
#315 = CARTESIAN_POINT ( 'NONE',  ( 0.0000000000000000000, 0.0000000000000000000, -71.35000000000000853 ) ) ;
#316 = EDGE_LOOP ( 'NONE', ( #281, #65 ) ) ;
#317 = ADVANCED_FACE ( 'NONE', ( #48, #363 ), #253, .T. ) ;
#318 = ORIENTED_EDGE ( 'NONE', *, *, #162, .T. ) ;
#319 = CARTESIAN_POINT ( 'NONE',  ( 0.0000000000000000000, 0.0000000000000000000, 0.0000000000000000000 ) ) ;
#320 = DIRECTION ( 'NONE',  ( 1.000000000000000000, 0.0000000000000000000, 0.0000000000000000000 ) ) ;
#321 = DIRECTION ( 'NONE',  ( -0.0000000000000000000, -0.0000000000000000000, 1.000000000000000000 ) ) ;
#322 = EDGE_CURVE ( 'NONE', #342, #177, #104, .T. ) ;
#323 = PRODUCT_DEFINITION_FORMATION_WITH_SPECIFIED_SOURCE ( 'ANY', '', #183, .NOT_KNOWN. ) ;
#324 = CARTESIAN_POINT ( 'NONE',  ( -62.17999999999999972, 7.614853797098241799E-15, 0.0000000000000000000 ) ) ;
#325 = LINE ( 'NONE', #108, #243 ) ;
#326 = ORIENTED_EDGE ( 'NONE', *, *, #308, .T. ) ;
#327 = APPLICATION_PROTOCOL_DEFINITION ( 'draft international standard', 'automotive_design', 1998, #118 ) ;
#328 = PRODUCT_CONTEXT ( 'NONE', #118, 'mechanical' ) ;
#329 = SURFACE_STYLE_USAGE ( .BOTH. , #13 ) ;
#330 = EDGE_CURVE ( 'NONE', #189, #98, #16, .T. ) ;
#331 = ORIENTED_EDGE ( 'NONE', *, *, #364, .F. ) ;
#332 =( LENGTH_UNIT ( ) NAMED_UNIT ( * ) SI_UNIT ( .MILLI., .METRE. ) );
#333 = AXIS2_PLACEMENT_3D ( 'NONE', #235, #40, #95 ) ;
#334 = UNCERTAINTY_MEASURE_WITH_UNIT (LENGTH_MEASURE( 1.000000000000000082E-05 ), #163, 'distance_accuracy_value', 'NONE');
#335 = SHAPE_DEFINITION_REPRESENTATION ( #124, #119 ) ;
#336 = VERTEX_POINT ( 'NONE', #294 ) ;
#337 = AXIS2_PLACEMENT_3D ( 'NONE', #51, #160, #370 ) ;
#338 = CARTESIAN_POINT ( 'NONE',  ( 0.0000000000000000000, 0.0000000000000000000, 0.0000000000000000000 ) ) ;
#339 = CARTESIAN_POINT ( 'NONE',  ( -54.94500000000000739, 6.728821837915133728E-15, 0.0000000000000000000 ) ) ;
#340 = SURFACE_STYLE_USAGE ( .BOTH. , #310 ) ;
#341 = CYLINDRICAL_SURFACE ( 'NONE', #371, 64.65000000000000568 ) ;
#342 = VERTEX_POINT ( 'NONE', #64 ) ;
#343 = DIRECTION ( 'NONE',  ( -0.0000000000000000000, -0.0000000000000000000, 1.000000000000000000 ) ) ;
#344 = CARTESIAN_POINT ( 'NONE',  ( 64.65000000000000568, 0.0000000000000000000, -42.92000000000001592 ) ) ;
#345 = ADVANCED_FACE ( 'NONE', ( #352 ), #341, .T. ) ;
#346 = FACE_OUTER_BOUND ( 'NONE', #90, .T. ) ;
#347 = CARTESIAN_POINT ( 'NONE',  ( 0.0000000000000000000, 0.0000000000000000000, -42.92000000000001592 ) ) ;
#348 = ORIENTED_EDGE ( 'NONE', *, *, #217, .F. ) ;
#349 = DIRECTION ( 'NONE',  ( 1.000000000000000000, 0.0000000000000000000, 0.0000000000000000000 ) ) ;
#350 = AXIS2_PLACEMENT_3D ( 'NONE', #85, #357, #14 ) ;
#351 = DIRECTION ( 'NONE',  ( -0.0000000000000000000, -0.0000000000000000000, 1.000000000000000000 ) ) ;
#352 = FACE_OUTER_BOUND ( 'NONE', #250, .T. ) ;
#353 = SURFACE_STYLE_FILL_AREA ( #103 ) ;
#354 = CARTESIAN_POINT ( 'NONE',  ( 0.0000000000000000000, 0.0000000000000000000, -72.06000000000000227 ) ) ;
#355 = UNCERTAINTY_MEASURE_WITH_UNIT (LENGTH_MEASURE( 1.000000000000000082E-05 ), #332, 'distance_accuracy_value', 'NONE');
#356 =( NAMED_UNIT ( * ) PLANE_ANGLE_UNIT ( ) SI_UNIT ( $, .RADIAN. ) );
#357 = DIRECTION ( 'NONE',  ( 0.0000000000000000000, -0.0000000000000000000, 1.000000000000000000 ) ) ;
#358 = AXIS2_PLACEMENT_3D ( 'NONE', #285, #351, #7 ) ;
#359 = CARTESIAN_POINT ( 'NONE',  ( 55.72500000000000142, 0.0000000000000000000, -72.05999999999998806 ) ) ;
#360 = FACE_OUTER_BOUND ( 'NONE', #69, .T. ) ;
#361 = VERTEX_POINT ( 'NONE', #292 ) ;
#362 = VECTOR ( 'NONE', #257, 1000.000000000000000 ) ;
#363 = FACE_BOUND ( 'NONE', #186, .T. ) ;
#364 = EDGE_CURVE ( 'NONE', #368, #32, #220, .T. ) ;
#365 = DIRECTION ( 'NONE',  ( -0.0000000000000000000, -0.0000000000000000000, 1.000000000000000000 ) ) ;
#366 = CIRCLE ( 'NONE', #337, 64.65000000000000568 ) ;
#367 = VERTEX_POINT ( 'NONE', #359 ) ;
#368 = VERTEX_POINT ( 'NONE', #182 ) ;
#369 = CARTESIAN_POINT ( 'NONE',  ( -64.65000000000000568, 7.917341556487637741E-15, -42.92000000000001592 ) ) ;
#370 = DIRECTION ( 'NONE',  ( 1.000000000000000000, 0.0000000000000000000, 0.0000000000000000000 ) ) ;
#371 = AXIS2_PLACEMENT_3D ( 'NONE', #5, #37, #265 ) ;
#372 = FACE_OUTER_BOUND ( 'NONE', #233, .T. ) ;
#373 = ORIENTED_EDGE ( 'NONE', *, *, #29, .T. ) ;
#374 = CARTESIAN_POINT ( 'NONE',  ( 0.0000000000000000000, 0.0000000000000000000, 0.0000000000000000000 ) ) ;
ENDSEC;
END-ISO-10303-21;
