ISO-10303-21;
HEADER;
FILE_DESCRIPTION(('CATIA V5 STEP Exchange'),'2;1');

FILE_NAME('C:\\Users\\PLO\\Documents\\brasserieSemie\\cannesRemplissage\\coulisseau.stp','2020-09-24T09:19:35+00:00',('none'),('none'),'CATIA Version 5 Release 20 GA (IN-10)','CATIA V5 STEP AP203','none');

FILE_SCHEMA(('CONFIG_CONTROL_DESIGN'));

ENDSEC;
/* file written by CATIA V5R20 */
DATA;
#5=PRODUCT('coulisseau','','',(#2)) ;
#1=APPLICATION_CONTEXT('configuration controlled 3D design of mechanical parts and assemblies') ;
#14=PRODUCT_DEFINITION('',' ',#6,#3) ;
#16=SECURITY_CLASSIFICATION(' ',' ',#15) ;
#15=SECURITY_CLASSIFICATION_LEVEL('unclassified') ;
#47=CARTESIAN_POINT(' ',(0.,0.,0.)) ;
#52=CARTESIAN_POINT('Axis2P3D Location',(0.,0.,20.6600000002)) ;
#57=CARTESIAN_POINT('Axis2P3D Location',(0.,0.,40.)) ;
#61=CARTESIAN_POINT('Vertex',(6.1,0.,40.)) ;
#63=CARTESIAN_POINT('Vertex',(-6.1,-7.4703454748E-016,40.)) ;
#66=CARTESIAN_POINT('Line Origine',(-6.1,-7.4703454748E-016,20.6600000002)) ;
#70=CARTESIAN_POINT('Vertex',(-6.1,-7.4703454748E-016,0.)) ;
#73=CARTESIAN_POINT('Axis2P3D Location',(0.,0.,0.)) ;
#77=CARTESIAN_POINT('Vertex',(6.1,0.,0.)) ;
#80=CARTESIAN_POINT('Line Origine',(6.1,1.49406909496E-015,20.6600000002)) ;
#92=CARTESIAN_POINT('Axis2P3D Location',(0.,0.,40.)) ;
#97=CARTESIAN_POINT('Axis2P3D Location',(0.,0.,0.)) ;
#109=CARTESIAN_POINT('Axis2P3D Location',(0.,0.,0.)) ;
#114=CARTESIAN_POINT('Axis2P3D Location',(0.,0.,0.)) ;
#118=CARTESIAN_POINT('Vertex',(-7.5,-4.24915417324E-015,0.)) ;
#120=CARTESIAN_POINT('Vertex',(7.5,8.49830834647E-015,0.)) ;
#123=CARTESIAN_POINT('Axis2P3D Location',(0.,0.,0.)) ;
#137=CARTESIAN_POINT('Axis2P3D Location',(0.,0.,40.)) ;
#142=CARTESIAN_POINT('Axis2P3D Location',(0.,0.,40.)) ;
#146=CARTESIAN_POINT('Vertex',(10.,0.,40.)) ;
#148=CARTESIAN_POINT('Vertex',(-10.,1.22464679915E-015,40.)) ;
#151=CARTESIAN_POINT('Axis2P3D Location',(0.,0.,40.)) ;
#165=CARTESIAN_POINT('Axis2P3D Location',(0.,0.,15.)) ;
#170=CARTESIAN_POINT('Axis2P3D Location',(0.,0.,30.)) ;
#174=CARTESIAN_POINT('Vertex',(7.5,0.,30.)) ;
#176=CARTESIAN_POINT('Vertex',(-7.5,-4.24915417324E-015,30.)) ;
#179=CARTESIAN_POINT('Line Origine',(-7.5,-4.24915417324E-015,15.)) ;
#184=CARTESIAN_POINT('Line Origine',(7.5,0.,15.)) ;
#196=CARTESIAN_POINT('Axis2P3D Location',(0.,0.,30.)) ;
#208=CARTESIAN_POINT('Axis2P3D Location',(0.,0.,20.)) ;
#213=CARTESIAN_POINT('Line Origine',(-10.,1.22464679915E-015,20.)) ;
#217=CARTESIAN_POINT('Vertex',(-10.,1.22464679915E-015,30.)) ;
#220=CARTESIAN_POINT('Line Origine',(10.,0.,20.)) ;
#224=CARTESIAN_POINT('Vertex',(10.,0.,30.)) ;
#227=CARTESIAN_POINT('Axis2P3D Location',(0.,0.,30.)) ;
#239=CARTESIAN_POINT('Axis2P3D Location',(0.,0.,30.)) ;
#251=CARTESIAN_POINT('Axis2P3D Location',(0.,0.,30.)) ;
#53=DIRECTION('Axis2P3D Direction',(0.,0.,-1.)) ;
#54=DIRECTION('Axis2P3D XDirection',(1.,0.,0.)) ;
#58=DIRECTION('Axis2P3D Direction',(0.,0.,-1.)) ;
#67=DIRECTION('Vector Direction',(0.,0.,-1.)) ;
#74=DIRECTION('Axis2P3D Direction',(0.,0.,-1.)) ;
#81=DIRECTION('Vector Direction',(0.,0.,-1.)) ;
#93=DIRECTION('Axis2P3D Direction',(0.,0.,-1.)) ;
#98=DIRECTION('Axis2P3D Direction',(0.,0.,-1.)) ;
#110=DIRECTION('Axis2P3D Direction',(0.,0.,1.)) ;
#111=DIRECTION('Axis2P3D XDirection',(1.,0.,0.)) ;
#115=DIRECTION('Axis2P3D Direction',(0.,0.,1.)) ;
#124=DIRECTION('Axis2P3D Direction',(0.,0.,1.)) ;
#138=DIRECTION('Axis2P3D Direction',(0.,0.,1.)) ;
#139=DIRECTION('Axis2P3D XDirection',(1.,0.,0.)) ;
#143=DIRECTION('Axis2P3D Direction',(0.,0.,1.)) ;
#152=DIRECTION('Axis2P3D Direction',(0.,0.,1.)) ;
#166=DIRECTION('Axis2P3D Direction',(0.,0.,-1.)) ;
#167=DIRECTION('Axis2P3D XDirection',(1.,0.,0.)) ;
#171=DIRECTION('Axis2P3D Direction',(0.,0.,-1.)) ;
#180=DIRECTION('Vector Direction',(0.,0.,-1.)) ;
#185=DIRECTION('Vector Direction',(0.,0.,-1.)) ;
#197=DIRECTION('Axis2P3D Direction',(0.,0.,-1.)) ;
#209=DIRECTION('Axis2P3D Direction',(0.,0.,1.)) ;
#210=DIRECTION('Axis2P3D XDirection',(1.,0.,0.)) ;
#214=DIRECTION('Vector Direction',(0.,0.,1.)) ;
#221=DIRECTION('Vector Direction',(0.,0.,1.)) ;
#228=DIRECTION('Axis2P3D Direction',(0.,0.,1.)) ;
#240=DIRECTION('Axis2P3D Direction',(0.,0.,1.)) ;
#252=DIRECTION('Axis2P3D Direction',(0.,0.,-1.)) ;
#253=DIRECTION('Axis2P3D XDirection',(1.,0.,0.)) ;
#48=AXIS2_PLACEMENT_3D(' ',#47,$,$) ;
#55=AXIS2_PLACEMENT_3D('Cylinder Axis2P3D',#52,#53,#54) ;
#59=AXIS2_PLACEMENT_3D('Circle Axis2P3D',#57,#58,$) ;
#75=AXIS2_PLACEMENT_3D('Circle Axis2P3D',#73,#74,$) ;
#94=AXIS2_PLACEMENT_3D('Circle Axis2P3D',#92,#93,$) ;
#99=AXIS2_PLACEMENT_3D('Circle Axis2P3D',#97,#98,$) ;
#112=AXIS2_PLACEMENT_3D('Plane Axis2P3D',#109,#110,#111) ;
#116=AXIS2_PLACEMENT_3D('Circle Axis2P3D',#114,#115,$) ;
#125=AXIS2_PLACEMENT_3D('Circle Axis2P3D',#123,#124,$) ;
#140=AXIS2_PLACEMENT_3D('Plane Axis2P3D',#137,#138,#139) ;
#144=AXIS2_PLACEMENT_3D('Circle Axis2P3D',#142,#143,$) ;
#153=AXIS2_PLACEMENT_3D('Circle Axis2P3D',#151,#152,$) ;
#168=AXIS2_PLACEMENT_3D('Cylinder Axis2P3D',#165,#166,#167) ;
#172=AXIS2_PLACEMENT_3D('Circle Axis2P3D',#170,#171,$) ;
#198=AXIS2_PLACEMENT_3D('Circle Axis2P3D',#196,#197,$) ;
#211=AXIS2_PLACEMENT_3D('Cylinder Axis2P3D',#208,#209,#210) ;
#229=AXIS2_PLACEMENT_3D('Circle Axis2P3D',#227,#228,$) ;
#241=AXIS2_PLACEMENT_3D('Circle Axis2P3D',#239,#240,$) ;
#254=AXIS2_PLACEMENT_3D('Plane Axis2P3D',#251,#252,#253) ;
#40=PRODUCT_DEFINITION_SHAPE(' ',' ',#14) ;
#31=APPROVAL_PERSON_ORGANIZATION(#25,#21,#19) ;
#25=PERSON_AND_ORGANIZATION(#22,#23) ;
#22=PERSON(' ',' ',' ',$,$,$) ;
#23=ORGANIZATION(' ',' ',' ') ;
#21=APPROVAL(#20,' ') ;
#20=APPROVAL_STATUS('not_yet_approved') ;
#19=APPROVAL_ROLE('APPROVER') ;
#13=DATE_AND_TIME(#11,#12) ;
#12=LOCAL_TIME(11,19,34.,#10) ;
#10=COORDINATED_UNIVERSAL_TIME_OFFSET(0,0,.AHEAD.) ;
#86=ORIENTED_EDGE('',*,*,#65,.T.) ;
#87=ORIENTED_EDGE('',*,*,#72,.F.) ;
#88=ORIENTED_EDGE('',*,*,#79,.T.) ;
#89=ORIENTED_EDGE('',*,*,#84,.T.) ;
#103=ORIENTED_EDGE('',*,*,#96,.T.) ;
#104=ORIENTED_EDGE('',*,*,#84,.F.) ;
#105=ORIENTED_EDGE('',*,*,#101,.T.) ;
#106=ORIENTED_EDGE('',*,*,#72,.T.) ;
#129=ORIENTED_EDGE('',*,*,#122,.T.) ;
#130=ORIENTED_EDGE('',*,*,#127,.T.) ;
#133=ORIENTED_EDGE('',*,*,#79,.F.) ;
#134=ORIENTED_EDGE('',*,*,#101,.F.) ;
#157=ORIENTED_EDGE('',*,*,#150,.T.) ;
#158=ORIENTED_EDGE('',*,*,#155,.T.) ;
#161=ORIENTED_EDGE('',*,*,#96,.F.) ;
#162=ORIENTED_EDGE('',*,*,#65,.F.) ;
#190=ORIENTED_EDGE('',*,*,#178,.T.) ;
#191=ORIENTED_EDGE('',*,*,#183,.F.) ;
#192=ORIENTED_EDGE('',*,*,#127,.F.) ;
#193=ORIENTED_EDGE('',*,*,#188,.T.) ;
#202=ORIENTED_EDGE('',*,*,#200,.T.) ;
#203=ORIENTED_EDGE('',*,*,#188,.F.) ;
#204=ORIENTED_EDGE('',*,*,#122,.F.) ;
#205=ORIENTED_EDGE('',*,*,#183,.T.) ;
#233=ORIENTED_EDGE('',*,*,#219,.T.) ;
#234=ORIENTED_EDGE('',*,*,#150,.F.) ;
#235=ORIENTED_EDGE('',*,*,#226,.F.) ;
#236=ORIENTED_EDGE('',*,*,#231,.F.) ;
#245=ORIENTED_EDGE('',*,*,#226,.T.) ;
#246=ORIENTED_EDGE('',*,*,#155,.F.) ;
#247=ORIENTED_EDGE('',*,*,#219,.F.) ;
#248=ORIENTED_EDGE('',*,*,#243,.F.) ;
#257=ORIENTED_EDGE('',*,*,#243,.T.) ;
#258=ORIENTED_EDGE('',*,*,#231,.T.) ;
#261=ORIENTED_EDGE('',*,*,#200,.F.) ;
#262=ORIENTED_EDGE('',*,*,#178,.F.) ;
#135=FACE_BOUND('',#132,.T.) ;
#163=FACE_BOUND('',#160,.T.) ;
#263=FACE_BOUND('',#260,.T.) ;
#51=CLOSED_SHELL('Closed Shell',(#91,#108,#136,#164,#195,#207,#238,#250,#264)) ;
#68=VECTOR('Line Direction',#67,1.) ;
#82=VECTOR('Line Direction',#81,1.) ;
#181=VECTOR('Line Direction',#180,1.) ;
#186=VECTOR('Line Direction',#185,1.) ;
#215=VECTOR('Line Direction',#214,1.) ;
#222=VECTOR('Line Direction',#221,1.) ;
#266=ADVANCED_BREP_SHAPE_REPRESENTATION('NONE',(#265),#46) ;
#49=SHAPE_REPRESENTATION(' ',(#48),#46) ;
#91=ADVANCED_FACE('Corps principal',(#90),#56,.F.) ;
#108=ADVANCED_FACE('Corps principal',(#107),#56,.F.) ;
#136=ADVANCED_FACE('Corps principal',(#131,#135),#113,.F.) ;
#164=ADVANCED_FACE('Corps principal',(#159,#163),#141,.T.) ;
#195=ADVANCED_FACE('Corps principal',(#194),#169,.T.) ;
#207=ADVANCED_FACE('Corps principal',(#206),#169,.T.) ;
#238=ADVANCED_FACE('Corps principal',(#237),#212,.T.) ;
#250=ADVANCED_FACE('Corps principal',(#249),#212,.T.) ;
#264=ADVANCED_FACE('Corps principal',(#259,#263),#255,.T.) ;
#4=APPLICATION_PROTOCOL_DEFINITION('international standard','config_control_design',1994,#1) ;
#32=APPROVAL_DATE_TIME(#13,#21) ;
#265=MANIFOLD_SOLID_BREP('Corps principal',#51) ;
#11=CALENDAR_DATE(2020,24,9) ;
#30=CC_DESIGN_APPROVAL(#21,(#16,#6,#14)) ;
#18=CC_DESIGN_DATE_AND_TIME_ASSIGNMENT(#13,#17,(#16)) ;
#29=CC_DESIGN_DATE_AND_TIME_ASSIGNMENT(#13,#28,(#14)) ;
#17=DATE_TIME_ROLE('classification_date') ;
#28=DATE_TIME_ROLE('creation_date') ;
#27=CC_DESIGN_PERSON_AND_ORGANIZATION_ASSIGNMENT(#25,#26,(#16)) ;
#33=CC_DESIGN_PERSON_AND_ORGANIZATION_ASSIGNMENT(#25,#34,(#6)) ;
#35=CC_DESIGN_PERSON_AND_ORGANIZATION_ASSIGNMENT(#25,#36,(#6,#14)) ;
#37=CC_DESIGN_PERSON_AND_ORGANIZATION_ASSIGNMENT(#25,#38,(#5)) ;
#26=PERSON_AND_ORGANIZATION_ROLE('classification_officer') ;
#34=PERSON_AND_ORGANIZATION_ROLE('design_supplier') ;
#36=PERSON_AND_ORGANIZATION_ROLE('creator') ;
#38=PERSON_AND_ORGANIZATION_ROLE('design_owner') ;
#39=CC_DESIGN_SECURITY_CLASSIFICATION(#16,(#6)) ;
#60=CIRCLE('generated circle',#59,6.1) ;
#76=CIRCLE('generated circle',#75,6.1) ;
#95=CIRCLE('generated circle',#94,6.1) ;
#100=CIRCLE('generated circle',#99,6.1) ;
#117=CIRCLE('generated circle',#116,7.5) ;
#126=CIRCLE('generated circle',#125,7.5) ;
#145=CIRCLE('generated circle',#144,10.) ;
#154=CIRCLE('generated circle',#153,10.) ;
#173=CIRCLE('generated circle',#172,7.5) ;
#199=CIRCLE('generated circle',#198,7.5) ;
#230=CIRCLE('generated circle',#229,10.) ;
#242=CIRCLE('generated circle',#241,10.) ;
#267=SHAPE_REPRESENTATION_RELATIONSHIP(' ',' ',#49,#266) ;
#56=CYLINDRICAL_SURFACE('generated cylinder',#55,6.1) ;
#169=CYLINDRICAL_SURFACE('generated cylinder',#168,7.5) ;
#212=CYLINDRICAL_SURFACE('generated cylinder',#211,10.) ;
#3=DESIGN_CONTEXT(' ',#1,'design') ;
#65=EDGE_CURVE('',#62,#64,#60,.F.) ;
#72=EDGE_CURVE('',#71,#64,#69,.F.) ;
#79=EDGE_CURVE('',#71,#78,#76,.T.) ;
#84=EDGE_CURVE('',#78,#62,#83,.F.) ;
#96=EDGE_CURVE('',#64,#62,#95,.F.) ;
#101=EDGE_CURVE('',#78,#71,#100,.T.) ;
#122=EDGE_CURVE('',#119,#121,#117,.F.) ;
#127=EDGE_CURVE('',#121,#119,#126,.F.) ;
#150=EDGE_CURVE('',#147,#149,#145,.T.) ;
#155=EDGE_CURVE('',#149,#147,#154,.T.) ;
#178=EDGE_CURVE('',#175,#177,#173,.T.) ;
#183=EDGE_CURVE('',#119,#177,#182,.F.) ;
#188=EDGE_CURVE('',#121,#175,#187,.F.) ;
#200=EDGE_CURVE('',#177,#175,#199,.T.) ;
#219=EDGE_CURVE('',#218,#149,#216,.T.) ;
#226=EDGE_CURVE('',#225,#147,#223,.T.) ;
#231=EDGE_CURVE('',#218,#225,#230,.F.) ;
#243=EDGE_CURVE('',#225,#218,#242,.F.) ;
#85=EDGE_LOOP('',(#86,#87,#88,#89)) ;
#102=EDGE_LOOP('',(#103,#104,#105,#106)) ;
#128=EDGE_LOOP('',(#129,#130)) ;
#132=EDGE_LOOP('',(#133,#134)) ;
#156=EDGE_LOOP('',(#157,#158)) ;
#160=EDGE_LOOP('',(#161,#162)) ;
#189=EDGE_LOOP('',(#190,#191,#192,#193)) ;
#201=EDGE_LOOP('',(#202,#203,#204,#205)) ;
#232=EDGE_LOOP('',(#233,#234,#235,#236)) ;
#244=EDGE_LOOP('',(#245,#246,#247,#248)) ;
#256=EDGE_LOOP('',(#257,#258)) ;
#260=EDGE_LOOP('',(#261,#262)) ;
#90=FACE_OUTER_BOUND('',#85,.T.) ;
#107=FACE_OUTER_BOUND('',#102,.T.) ;
#131=FACE_OUTER_BOUND('',#128,.T.) ;
#159=FACE_OUTER_BOUND('',#156,.T.) ;
#194=FACE_OUTER_BOUND('',#189,.T.) ;
#206=FACE_OUTER_BOUND('',#201,.T.) ;
#237=FACE_OUTER_BOUND('',#232,.T.) ;
#249=FACE_OUTER_BOUND('',#244,.T.) ;
#259=FACE_OUTER_BOUND('',#256,.T.) ;
#45=UNCERTAINTY_MEASURE_WITH_UNIT(LENGTH_MEASURE(0.005),#41,'distance_accuracy_value','CONFUSED CURVE UNCERTAINTY') ;
#69=LINE('Line',#66,#68) ;
#83=LINE('Line',#80,#82) ;
#182=LINE('Line',#179,#181) ;
#187=LINE('Line',#184,#186) ;
#216=LINE('Line',#213,#215) ;
#223=LINE('Line',#220,#222) ;
#2=MECHANICAL_CONTEXT(' ',#1,'mechanical') ;
#24=PERSONAL_ADDRESS(' ',' ',' ',' ',' ',' ',' ',' ',' ',' ',' ',' ',(#22),' ') ;
#113=PLANE('Plane',#112) ;
#141=PLANE('Plane',#140) ;
#255=PLANE('Plane',#254) ;
#43=PLANE_ANGLE_MEASURE_WITH_UNIT(PLANE_ANGLE_MEASURE(0.0174532925199),#42) ;
#7=PRODUCT_CATEGORY('part',$) ;
#9=PRODUCT_CATEGORY_RELATIONSHIP(' ',' ',#7,#8) ;
#6=PRODUCT_DEFINITION_FORMATION_WITH_SPECIFIED_SOURCE('',' ',#5,.NOT_KNOWN.) ;
#8=PRODUCT_RELATED_PRODUCT_CATEGORY('detail',$,(#5)) ;
#50=SHAPE_DEFINITION_REPRESENTATION(#40,#49) ;
#62=VERTEX_POINT('',#61) ;
#64=VERTEX_POINT('',#63) ;
#71=VERTEX_POINT('',#70) ;
#78=VERTEX_POINT('',#77) ;
#119=VERTEX_POINT('',#118) ;
#121=VERTEX_POINT('',#120) ;
#147=VERTEX_POINT('',#146) ;
#149=VERTEX_POINT('',#148) ;
#175=VERTEX_POINT('',#174) ;
#177=VERTEX_POINT('',#176) ;
#218=VERTEX_POINT('',#217) ;
#225=VERTEX_POINT('',#224) ;
#41=(LENGTH_UNIT()NAMED_UNIT(*)SI_UNIT(.MILLI.,.METRE.)) ;
#42=(NAMED_UNIT(*)PLANE_ANGLE_UNIT()SI_UNIT($,.RADIAN.)) ;
#44=(NAMED_UNIT(*)SI_UNIT($,.STERADIAN.)SOLID_ANGLE_UNIT()) ;
#46=(GEOMETRIC_REPRESENTATION_CONTEXT(3)GLOBAL_UNCERTAINTY_ASSIGNED_CONTEXT((#45))GLOBAL_UNIT_ASSIGNED_CONTEXT((#41,#42,#44))REPRESENTATION_CONTEXT(' ',' ')) ;
ENDSEC;
END-ISO-10303-21;
