ISO-10303-21;
HEADER;
FILE_DESCRIPTION (( 'STEP AP214' ),
    '1' );
FILE_NAME ('XW-USI-056-A-rotule.STEP',
    '2020-09-16T12:39:03',
    ( '' ),
    ( '' ),
    'SwSTEP 2.0',
    'SolidWorks 2016',
    '' );
FILE_SCHEMA (( 'AUTOMOTIVE_DESIGN' ));
ENDSEC;

DATA;
#1 =( GEOMETRIC_REPRESENTATION_CONTEXT ( 3 ) GLOBAL_UNCERTAINTY_ASSIGNED_CONTEXT ( ( #146 ) ) GLOBAL_UNIT_ASSIGNED_CONTEXT ( ( #325, #326, #33 ) ) REPRESENTATION_CONTEXT ( 'NONE', 'WORKASPACE' ) );
#2 = CARTESIAN_POINT ( 'NONE',  ( 1.765286511744454600E-015, -6.324555320336759900, 0.0000000000000000000 ) ) ;
#3 = VERTEX_POINT ( 'NONE', #250 ) ;
#4 = VECTOR ( 'NONE', #211, 1000.000000000000000 ) ;
#5 =( LENGTH_UNIT ( ) NAMED_UNIT ( * ) SI_UNIT ( .MILLI., .METRE. ) );
#6 = EDGE_CURVE ( 'NONE', #289, #104, #283, .T. ) ;
#7 = DIRECTION ( 'NONE',  ( -1.224646799147353200E-016, 1.596509644689464500E-032, 1.000000000000000000 ) ) ;
#8 = STYLED_ITEM ( 'NONE', ( #77 ), #56 ) ;
#9 = SURFACE_STYLE_USAGE ( .BOTH. , #334 ) ;
#10 = AXIS2_PLACEMENT_3D ( 'NONE', #311, #16, #232 ) ;
#11 = DIRECTION ( 'NONE',  ( 0.0000000000000000000, 0.0000000000000000000, 1.000000000000000000 ) ) ;
#12 =( NAMED_UNIT ( * ) PLANE_ANGLE_UNIT ( ) SI_UNIT ( $, .RADIAN. ) );
#13 = CARTESIAN_POINT ( 'NONE',  ( 9.102234181381082100E-016, 6.982120021884470300, 0.0000000000000000000 ) ) ;
#14 = DIRECTION ( 'NONE',  ( 0.0000000000000000000, 0.0000000000000000000, 1.000000000000000000 ) ) ;
#15 = STYLED_ITEM ( 'NONE', ( #164 ), #321 ) ;
#16 = DIRECTION ( 'NONE',  ( 1.224646799147353500E-016, -1.000000000000000000, 0.0000000000000000000 ) ) ;
#17 = EDGE_LOOP ( 'NONE', ( #133, #43, #192, #216 ) ) ;
#18 = CARTESIAN_POINT ( 'NONE',  ( 9.102234181381082100E-016, 6.982120021884469500, 0.0000000000000000000 ) ) ;
#19 = CARTESIAN_POINT ( 'NONE',  ( 0.0000000000000000000, 0.0000000000000000000, 0.0000000000000000000 ) ) ;
#20 = AXIS2_PLACEMENT_3D ( 'NONE', #131, #44, #157 ) ;
#21 = DIRECTION ( 'NONE',  ( 1.000000000000000000, 1.927470528863119300E-016, 0.0000000000000000000 ) ) ;
#22 = DIRECTION ( 'NONE',  ( 1.224646799147353500E-016, -1.000000000000000000, 0.0000000000000000000 ) ) ;
#23 = STYLED_ITEM ( 'NONE', ( #73 ), #55 ) ;
#24 = CARTESIAN_POINT ( 'NONE',  ( 2.010215871573925500E-015, -8.324555320336759900, 0.0000000000000000000 ) ) ;
#25 = DIRECTION ( 'NONE',  ( 0.0000000000000000000, 0.0000000000000000000, 1.000000000000000000 ) ) ;
#26 = COLOUR_RGB ( '',0.7921568627450980000, 0.8196078431372548800, 0.9333333333333333500 ) ;
#27 = COLOUR_RGB ( '',0.7921568627450980000, 0.8196078431372548800, 0.9333333333333333500 ) ;
#28 = EDGE_LOOP ( 'NONE', ( #188, #156, #229, #92 ) ) ;
#29 = AXIS2_PLACEMENT_3D ( 'NONE', #190, #215, #54 ) ;
#30 = PRODUCT_DEFINITION_CONTEXT ( 'detailed design', #222, 'design' ) ;
#31 = DIRECTION ( 'NONE',  ( 1.000000000000000000, 9.637352644315596500E-017, 0.0000000000000000000 ) ) ;
#32 = EDGE_LOOP ( 'NONE', ( #206, #274, #265, #98 ) ) ;
#33 =( NAMED_UNIT ( * ) SI_UNIT ( $, .STERADIAN. ) SOLID_ANGLE_UNIT ( ) );
#34 = AXIS2_PLACEMENT_3D ( 'NONE', #13, #152, #97 ) ;
#35 = ORIENTED_EDGE ( 'NONE', *, *, #118, .F. ) ;
#36 = VECTOR ( 'NONE', #59, 1000.000000000000000 ) ;
#37 = FILL_AREA_STYLE_COLOUR ( '', #26 ) ;
#38 = CIRCLE ( 'NONE', #102, 6.999999999999996400 ) ;
#39 = FILL_AREA_STYLE ('',( #37 ) ) ;
#40 = CIRCLE ( 'NONE', #66, 6.999999999999994700 ) ;
#41 =( GEOMETRIC_REPRESENTATION_CONTEXT ( 3 ) GLOBAL_UNCERTAINTY_ASSIGNED_CONTEXT ( ( #303 ) ) GLOBAL_UNIT_ASSIGNED_CONTEXT ( ( #100, #339, #231 ) ) REPRESENTATION_CONTEXT ( 'NONE', 'WORKASPACE' ) );
#42 = CARTESIAN_POINT ( 'NONE',  ( 9.102234181381082100E-016, 6.982120021884470300, 0.0000000000000000000 ) ) ;
#43 = ORIENTED_EDGE ( 'NONE', *, *, #169, .T. ) ;
#44 = DIRECTION ( 'NONE',  ( -0.0000000000000000000, 1.000000000000000000, -0.0000000000000000000 ) ) ;
#45 = DIRECTION ( 'NONE',  ( 0.0000000000000000000, 0.0000000000000000000, 1.000000000000000000 ) ) ;
#46 = SURFACE_SIDE_STYLE ('',( #150 ) ) ;
#47 = EDGE_CURVE ( 'NONE', #171, #244, #327, .T. ) ;
#48 = DIRECTION ( 'NONE',  ( 1.000000000000000000, 9.637352644315596500E-017, 0.0000000000000000000 ) ) ;
#49 = VECTOR ( 'NONE', #261, 1000.000000000000100 ) ;
#50 = ORIENTED_EDGE ( 'NONE', *, *, #169, .F. ) ;
#51 = CIRCLE ( 'NONE', #253, 8.025000000000000400 ) ;
#52 = DIRECTION ( 'NONE',  ( 0.0000000000000000000, 0.0000000000000000000, 1.000000000000000000 ) ) ;
#53 = ADVANCED_FACE ( 'NONE', ( #345 ), #119, .T. ) ;
#54 = DIRECTION ( 'NONE',  ( 1.000000000000000000, 1.224646799147353500E-016, 0.0000000000000000000 ) ) ;
#55 = ADVANCED_FACE ( 'NONE', ( #147 ), #288, .F. ) ;
#56 = MANIFOLD_SOLID_BREP ( 'Trou taraudé M161', #200 ) ;
#57 = CARTESIAN_POINT ( 'NONE',  ( 8.500000000000001800, 6.982120021884467700, 1.071565949253933900E-015 ) ) ;
#58 = PRODUCT ( 'XW-USI-056-A-rotule', 'XW-USI-056-A-rotule', '', ( #145 ) ) ;
#59 = DIRECTION ( 'NONE',  ( -1.224646799147353500E-016, 1.000000000000000000, -0.0000000000000000000 ) ) ;
#60 = EDGE_CURVE ( 'NONE', #78, #149, #155, .T. ) ;
#61 =( NAMED_UNIT ( * ) PLANE_ANGLE_UNIT ( ) SI_UNIT ( $, .RADIAN. ) );
#62 = SURFACE_STYLE_USAGE ( .BOTH. , #219 ) ;
#63 = CYLINDRICAL_SURFACE ( 'NONE', #287, 8.999999999999998200 ) ;
#64 = ORIENTED_EDGE ( 'NONE', *, *, #280, .T. ) ;
#65 = LINE ( 'NONE', #185, #4 ) ;
#66 = AXIS2_PLACEMENT_3D ( 'NONE', #266, #259, #286 ) ;
#67 = EDGE_LOOP ( 'NONE', ( #90, #203 ) ) ;
#68 = ORIENTED_EDGE ( 'NONE', *, *, #47, .T. ) ;
#69 = AXIS2_PLACEMENT_3D ( 'NONE', #135, #159, #284 ) ;
#70 = VERTEX_POINT ( 'NONE', #301 ) ;
#71 = CONICAL_SURFACE ( 'NONE', #34, 8.025000000000000400, 0.7853981633974517200 ) ;
#72 = DIRECTION ( 'NONE',  ( -1.000000000000000000, 1.020425574104004100E-016, 0.0000000000000000000 ) ) ;
#73 = PRESENTATION_STYLE_ASSIGNMENT (( #9 ) ) ;
#74 = DIRECTION ( 'NONE',  ( -1.224646799147353500E-016, 1.000000000000000000, -0.0000000000000000000 ) ) ;
#75 = DIRECTION ( 'NONE',  ( -0.0000000000000000000, 1.000000000000000000, -0.0000000000000000000 ) ) ;
#76 = EDGE_CURVE ( 'NONE', #104, #323, #170, .T. ) ;
#77 = PRESENTATION_STYLE_ASSIGNMENT (( #181 ) ) ;
#78 = VERTEX_POINT ( 'NONE', #202 ) ;
#79 = FACE_OUTER_BOUND ( 'NONE', #319, .T. ) ;
#80 = DIRECTION ( 'NONE',  ( 0.0000000000000000000, 0.7071067811865451300, 0.7071067811865499000 ) ) ;
#81 = EDGE_CURVE ( 'NONE', #295, #304, #268, .T. ) ;
#82 = CARTESIAN_POINT ( 'NONE',  ( 9.000000000000000000, -6.324555320336758200, 1.102182119232617900E-015 ) ) ;
#83 = AXIS2_PLACEMENT_3D ( 'NONE', #320, #221, #163 ) ;
#84 = ORIENTED_EDGE ( 'NONE', *, *, #60, .T. ) ;
#85 = FILL_AREA_STYLE_COLOUR ( '', #27 ) ;
#86 = VERTEX_POINT ( 'NONE', #227 ) ;
#87 = PRESENTATION_STYLE_ASSIGNMENT (( #129 ) ) ;
#88 = DIRECTION ( 'NONE',  ( -1.224646799147353500E-016, 1.000000000000000000, -0.0000000000000000000 ) ) ;
#89 = AXIS2_PLACEMENT_3D ( 'NONE', #19, #25, #285 ) ;
#90 = ORIENTED_EDGE ( 'NONE', *, *, #122, .F. ) ;
#91 = AXIS2_PLACEMENT_3D ( 'NONE', #24, #88, #198 ) ;
#92 = ORIENTED_EDGE ( 'NONE', *, *, #122, .T. ) ;
#93 = LINE ( 'NONE', #108, #49 ) ;
#94 = DIRECTION ( 'NONE',  ( 0.0000000000000000000, 0.0000000000000000000, 1.000000000000000000 ) ) ;
#95 = AXIS2_PLACEMENT_3D ( 'NONE', #42, #186, #256 ) ;
#96 = CARTESIAN_POINT ( 'NONE',  ( 1.765286511744454600E-015, -6.324555320336759900, 0.0000000000000000000 ) ) ;
#97 = DIRECTION ( 'NONE',  ( 0.0000000000000000000, 0.0000000000000000000, 1.000000000000000000 ) ) ;
#98 = ORIENTED_EDGE ( 'NONE', *, *, #212, .F. ) ;
#99 = CYLINDRICAL_SURFACE ( 'NONE', #91, 8.999999999999998200 ) ;
#100 =( LENGTH_UNIT ( ) NAMED_UNIT ( * ) SI_UNIT ( .MILLI., .METRE. ) );
#101 = ADVANCED_FACE ( 'NONE', ( #194 ), #112, .F. ) ;
#102 = AXIS2_PLACEMENT_3D ( 'NONE', #233, #193, #52 ) ;
#103 = DIRECTION ( 'NONE',  ( -0.0000000000000000000, 1.000000000000000000, -0.0000000000000000000 ) ) ;
#104 = VERTEX_POINT ( 'NONE', #226 ) ;
#105 = LINE ( 'NONE', #236, #36 ) ;
#106 = CARTESIAN_POINT ( 'NONE',  ( 9.102234181381082100E-016, 5.957120021884471800, 6.999999999999994700 ) ) ;
#107 = ADVANCED_FACE ( 'NONE', ( #249 ), #197, .F. ) ;
#108 = CARTESIAN_POINT ( 'NONE',  ( 1.893002474453859100E-015, 6.982120021884470300, -8.025000000000000400 ) ) ;
#109 =( GEOMETRIC_REPRESENTATION_CONTEXT ( 3 ) GLOBAL_UNCERTAINTY_ASSIGNED_CONTEXT ( ( #263 ) ) GLOBAL_UNIT_ASSIGNED_CONTEXT ( ( #5, #61, #116 ) ) REPRESENTATION_CONTEXT ( 'NONE', 'WORKASPACE' ) );
#110 = ADVANCED_FACE ( 'NONE', ( #79 ), #71, .F. ) ;
#111 = EDGE_LOOP ( 'NONE', ( #50, #239, #182, #341 ) ) ;
#112 = CONICAL_SURFACE ( 'NONE', #267, 8.025000000000000400, 0.7853981633974517200 ) ;
#113 = DIRECTION ( 'NONE',  ( 1.224646799147353500E-016, -1.000000000000000000, 0.0000000000000000000 ) ) ;
#114 = EDGE_CURVE ( 'NONE', #3, #289, #123, .T. ) ;
#115 = LINE ( 'NONE', #308, #143 ) ;
#116 =( NAMED_UNIT ( * ) SI_UNIT ( $, .STERADIAN. ) SOLID_ANGLE_UNIT ( ) );
#117 = ORIENTED_EDGE ( 'NONE', *, *, #6, .F. ) ;
#118 = EDGE_CURVE ( 'NONE', #3, #323, #65, .T. ) ;
#119 = SPHERICAL_SURFACE ( 'NONE', #322, 11.00000000000000000 ) ;
#120 = ORIENTED_EDGE ( 'NONE', *, *, #76, .T. ) ;
#121 = DIRECTION ( 'NONE',  ( 1.303649056855427000E-016, 1.000000000000000000, -0.0000000000000000000 ) ) ;
#122 = EDGE_CURVE ( 'NONE', #70, #86, #307, .T. ) ;
#123 = CIRCLE ( 'NONE', #158, 6.999999999999996400 ) ;
#124 = ORIENTED_EDGE ( 'NONE', *, *, #207, .T. ) ;
#125 = FACE_BOUND ( 'NONE', #142, .T. ) ;
#126 = CARTESIAN_POINT ( 'NONE',  ( 0.0000000000000000000, 0.0000000000000000000, 0.0000000000000000000 ) ) ;
#127 = CARTESIAN_POINT ( 'NONE',  ( -8.499999999999998200, 6.982120021884469500, 0.0000000000000000000 ) ) ;
#128 = SURFACE_STYLE_FILL_AREA ( #179 ) ;
#129 = SURFACE_STYLE_USAGE ( .BOTH. , #46 ) ;
#130 = DIRECTION ( 'NONE',  ( -0.0000000000000000000, 1.000000000000000000, -0.0000000000000000000 ) ) ;
#131 = CARTESIAN_POINT ( 'NONE',  ( 9.102234181381082100E-016, 5.957120021884471800, 0.0000000000000000000 ) ) ;
#132 = CIRCLE ( 'NONE', #328, 8.999999999999998200 ) ;
#133 = ORIENTED_EDGE ( 'NONE', *, *, #207, .F. ) ;
#134 = FACE_OUTER_BOUND ( 'NONE', #196, .T. ) ;
#135 = CARTESIAN_POINT ( 'NONE',  ( 0.0000000000000000000, 0.0000000000000000000, 0.0000000000000000000 ) ) ;
#136 = ORIENTED_EDGE ( 'NONE', *, *, #118, .T. ) ;
#137 = MECHANICAL_DESIGN_GEOMETRIC_PRESENTATION_REPRESENTATION (  '', ( #333 ), #41 ) ;
#138 = EDGE_LOOP ( 'NONE', ( #254, #279, #183, #168 ) ) ;
#139 = CARTESIAN_POINT ( 'NONE',  ( 2.010215871573925500E-015, -8.324555320336759900, 0.0000000000000000000 ) ) ;
#140 = FILL_AREA_STYLE ('',( #85 ) ) ;
#141 = UNCERTAINTY_MEASURE_WITH_UNIT (LENGTH_MEASURE( 1.000000000000000100E-005 ), #297, 'distance_accuracy_value', 'NONE');
#142 = EDGE_LOOP ( 'NONE', ( #294, #176 ) ) ;
#143 = VECTOR ( 'NONE', #74, 1000.000000000000000 ) ;
#144 = MECHANICAL_DESIGN_GEOMETRIC_PRESENTATION_REPRESENTATION (  '', ( #23 ), #260 ) ;
#145 = PRODUCT_CONTEXT ( 'NONE', #199, 'mechanical' ) ;
#146 = UNCERTAINTY_MEASURE_WITH_UNIT (LENGTH_MEASURE( 1.000000000000000100E-005 ), #325, 'distance_accuracy_value', 'NONE');
#147 = FACE_OUTER_BOUND ( 'NONE', #338, .T. ) ;
#148 = PRESENTATION_LAYER_ASSIGNMENT (  '', '', ( #15 ) ) ;
#149 = VERTEX_POINT ( 'NONE', #278 ) ;
#150 = SURFACE_STYLE_FILL_AREA ( #281 ) ;
#151 = CARTESIAN_POINT ( 'NONE',  ( 1.734723475976806900E-015, 6.982120021884468600, 0.0000000000000000000 ) ) ;
#152 = DIRECTION ( 'NONE',  ( -0.0000000000000000000, 1.000000000000000000, -0.0000000000000000000 ) ) ;
#153 = AXIS2_PLACEMENT_3D ( 'NONE', #162, #342, #264 ) ;
#154 = PRODUCT_DEFINITION ( 'UNKNOWN', '', #240, #30 ) ;
#155 = CIRCLE ( 'NONE', #10, 8.999999999999998200 ) ;
#156 = ORIENTED_EDGE ( 'NONE', *, *, #191, .F. ) ;
#157 = DIRECTION ( 'NONE',  ( 0.0000000000000000000, 0.0000000000000000000, 1.000000000000000000 ) ) ;
#158 = AXIS2_PLACEMENT_3D ( 'NONE', #255, #130, #252 ) ;
#159 = DIRECTION ( 'NONE',  ( -0.0000000000000000000, 0.0000000000000000000, -1.000000000000000000 ) ) ;
#160 = DIRECTION ( 'NONE',  ( -1.224646799147353500E-016, 1.000000000000000000, -0.0000000000000000000 ) ) ;
#161 = DIRECTION ( 'NONE',  ( 0.0000000000000000000, 0.0000000000000000000, 1.000000000000000000 ) ) ;
#162 = CARTESIAN_POINT ( 'NONE',  ( 1.734723475976806900E-015, 6.982120021884468600, 0.0000000000000000000 ) ) ;
#163 = DIRECTION ( 'NONE',  ( 1.000000000000000000, 0.0000000000000000000, 0.0000000000000000000 ) ) ;
#164 = PRESENTATION_STYLE_ASSIGNMENT (( #62 ) ) ;
#165 = AXIS2_PLACEMENT_3D ( 'NONE', #151, #121, #72 ) ;
#166 = ORIENTED_EDGE ( 'NONE', *, *, #212, .T. ) ;
#167 = DIRECTION ( 'NONE',  ( 1.000000000000000000, 0.0000000000000000000, 1.224646799147353200E-016 ) ) ;
#168 = ORIENTED_EDGE ( 'NONE', *, *, #218, .F. ) ;
#169 = EDGE_CURVE ( 'NONE', #149, #304, #115, .T. ) ;
#170 = CIRCLE ( 'NONE', #20, 6.999999999999994700 ) ;
#171 = VERTEX_POINT ( 'NONE', #127 ) ;
#172 = SURFACE_STYLE_FILL_AREA ( #140 ) ;
#173 = DIRECTION ( 'NONE',  ( -1.000000000000000000, 1.303649056855427000E-016, 0.0000000000000000000 ) ) ;
#174 = AXIS2_PLACEMENT_3D ( 'NONE', #290, #7, #167 ) ;
#175 = DIRECTION ( 'NONE',  ( -0.0000000000000000000, 1.000000000000000000, -0.0000000000000000000 ) ) ;
#176 = ORIENTED_EDGE ( 'NONE', *, *, #276, .T. ) ;
#177 = VECTOR ( 'NONE', #80, 1000.000000000000100 ) ;
#178 = CARTESIAN_POINT ( 'NONE',  ( 9.102234181381082100E-016, 6.982120021884469500, 0.0000000000000000000 ) ) ;
#179 = FILL_AREA_STYLE ('',( #205 ) ) ;
#180 =( NAMED_UNIT ( * ) SI_UNIT ( $, .STERADIAN. ) SOLID_ANGLE_UNIT ( ) );
#181 = SURFACE_STYLE_USAGE ( .BOTH. , #296 ) ;
#182 = ORIENTED_EDGE ( 'NONE', *, *, #201, .T. ) ;
#183 = ORIENTED_EDGE ( 'NONE', *, *, #47, .F. ) ;
#184 = MECHANICAL_DESIGN_GEOMETRIC_PRESENTATION_REPRESENTATION (  '', ( #8 ), #242 ) ;
#185 = CARTESIAN_POINT ( 'NONE',  ( 9.102234181381082100E-016, 6.982120021884469500, 6.999999999999995600 ) ) ;
#186 = DIRECTION ( 'NONE',  ( -0.0000000000000000000, 1.000000000000000000, -0.0000000000000000000 ) ) ;
#187 = COLOUR_RGB ( '',0.7921568627450980000, 0.8196078431372548800, 0.9333333333333333500 ) ;
#188 = ORIENTED_EDGE ( 'NONE', *, *, #225, .F. ) ;
#189 = PLANE ( 'NONE',  #302 ) ;
#190 = CARTESIAN_POINT ( 'NONE',  ( 2.010215871573925500E-015, -8.324555320336759900, 0.0000000000000000000 ) ) ;
#191 = EDGE_CURVE ( 'NONE', #323, #104, #40, .T. ) ;
#192 = ORIENTED_EDGE ( 'NONE', *, *, #336, .T. ) ;
#193 = DIRECTION ( 'NONE',  ( -0.0000000000000000000, 1.000000000000000000, -0.0000000000000000000 ) ) ;
#194 = FACE_OUTER_BOUND ( 'NONE', #28, .T. ) ;
#195 = EDGE_CURVE ( 'NONE', #323, #70, #245, .T. ) ;
#196 = EDGE_LOOP ( 'NONE', ( #84, #124 ) ) ;
#197 = CYLINDRICAL_SURFACE ( 'NONE', #275, 6.999999999999995600 ) ;
#198 = DIRECTION ( 'NONE',  ( -1.000000000000000000, -1.927470528863119300E-016, 0.0000000000000000000 ) ) ;
#199 = APPLICATION_CONTEXT ( 'automotive_design' ) ;
#200 = CLOSED_SHELL ( 'NONE', ( #110, #55, #344, #53, #234, #312, #309, #214, #107, #101 ) ) ;
#201 = EDGE_CURVE ( 'NONE', #78, #295, #105, .T. ) ;
#202 = CARTESIAN_POINT ( 'NONE',  ( -8.999999999999996400, -8.324555320336761700, 0.0000000000000000000 ) ) ;
#203 = ORIENTED_EDGE ( 'NONE', *, *, #280, .F. ) ;
#204 = CIRCLE ( 'NONE', #238, 8.999999999999998200 ) ;
#205 = FILL_AREA_STYLE_COLOUR ( '', #337 ) ;
#206 = ORIENTED_EDGE ( 'NONE', *, *, #317, .F. ) ;
#207 = EDGE_CURVE ( 'NONE', #149, #78, #204, .T. ) ;
#208 = DIRECTION ( 'NONE',  ( 1.224646799147353500E-016, -1.000000000000000000, 0.0000000000000000000 ) ) ;
#209 = FILL_AREA_STYLE_COLOUR ( '', #187 ) ;
#210 = VECTOR ( 'NONE', #175, 1000.000000000000000 ) ;
#211 = DIRECTION ( 'NONE',  ( -0.0000000000000000000, 1.000000000000000000, -0.0000000000000000000 ) ) ;
#212 = EDGE_CURVE ( 'NONE', #244, #171, #270, .T. ) ;
#213 = CARTESIAN_POINT ( 'NONE',  ( 2.010215871573925500E-015, -8.324555320336759900, 0.0000000000000000000 ) ) ;
#214 = ADVANCED_FACE ( 'NONE', ( #125, #134 ), #318, .T. ) ;
#215 = DIRECTION ( 'NONE',  ( 1.224646799147353500E-016, -1.000000000000000000, 0.0000000000000000000 ) ) ;
#216 = ORIENTED_EDGE ( 'NONE', *, *, #201, .F. ) ;
#217 = CARTESIAN_POINT ( 'NONE',  ( -8.499999999999998200, 6.982120021884470300, 0.0000000000000000000 ) ) ;
#218 = EDGE_CURVE ( 'NONE', #295, #171, #332, .T. ) ;
#219 = SURFACE_SIDE_STYLE ('',( #172 ) ) ;
#220 = APPLICATION_PROTOCOL_DEFINITION ( 'draft international standard', 'automotive_design', 1998, #222 ) ;
#221 = DIRECTION ( 'NONE',  ( 0.0000000000000000000, 0.0000000000000000000, 1.000000000000000000 ) ) ;
#222 = APPLICATION_CONTEXT ( 'automotive_design' ) ;
#223 = PRESENTATION_LAYER_ASSIGNMENT (  '', '', ( #23 ) ) ;
#224 = ORIENTED_EDGE ( 'NONE', *, *, #225, .T. ) ;
#225 = EDGE_CURVE ( 'NONE', #104, #86, #93, .T. ) ;
#226 = CARTESIAN_POINT ( 'NONE',  ( 1.767476177541255000E-015, 5.957120021884471800, -6.999999999999994700 ) ) ;
#227 = CARTESIAN_POINT ( 'NONE',  ( 1.893002474453859100E-015, 6.982120021884470300, -8.025000000000000400 ) ) ;
#228 = SURFACE_STYLE_FILL_AREA ( #39 ) ;
#229 = ORIENTED_EDGE ( 'NONE', *, *, #195, .T. ) ;
#230 = SPHERICAL_SURFACE ( 'NONE', #89, 11.00000000000000000 ) ;
#231 =( NAMED_UNIT ( * ) SI_UNIT ( $, .STERADIAN. ) SOLID_ANGLE_UNIT ( ) );
#232 = DIRECTION ( 'NONE',  ( 1.000000000000000000, 1.927470528863119300E-016, 0.0000000000000000000 ) ) ;
#233 = CARTESIAN_POINT ( 'NONE',  ( 9.102234181381082100E-016, -8.324555320336756400, 0.0000000000000000000 ) ) ;
#234 = ADVANCED_FACE ( 'NONE', ( #314 ), #230, .T. ) ;
#235 = FACE_OUTER_BOUND ( 'NONE', #111, .T. ) ;
#236 = CARTESIAN_POINT ( 'NONE',  ( -8.999999999999996400, -8.324555320336761700, 0.0000000000000000000 ) ) ;
#237 = DIRECTION ( 'NONE',  ( 1.303649056855427000E-016, 1.000000000000000000, -0.0000000000000000000 ) ) ;
#238 = AXIS2_PLACEMENT_3D ( 'NONE', #139, #22, #21 ) ;
#239 = ORIENTED_EDGE ( 'NONE', *, *, #60, .F. ) ;
#240 = PRODUCT_DEFINITION_FORMATION_WITH_SPECIFIED_SOURCE ( 'ANY', '', #58, .NOT_KNOWN. ) ;
#241 = APPLICATION_PROTOCOL_DEFINITION ( 'draft international standard', 'automotive_design', 1998, #199 ) ;
#242 =( GEOMETRIC_REPRESENTATION_CONTEXT ( 3 ) GLOBAL_UNCERTAINTY_ASSIGNED_CONTEXT ( ( #257 ) ) GLOBAL_UNIT_ASSIGNED_CONTEXT ( ( #300, #306, #180 ) ) REPRESENTATION_CONTEXT ( 'NONE', 'WORKASPACE' ) );
#243 = SHAPE_DEFINITION_REPRESENTATION ( #272, #321 ) ;
#244 = VERTEX_POINT ( 'NONE', #57 ) ;
#245 = LINE ( 'NONE', #313, #177 ) ;
#246 = ORIENTED_EDGE ( 'NONE', *, *, #276, .F. ) ;
#247 = ORIENTED_EDGE ( 'NONE', *, *, #114, .F. ) ;
#248 = AXIS2_PLACEMENT_3D ( 'NONE', #96, #208, #48 ) ;
#249 = FACE_OUTER_BOUND ( 'NONE', #271, .T. ) ;
#250 = CARTESIAN_POINT ( 'NONE',  ( 9.102234181381082100E-016, -8.324555320336756400, 6.999999999999996400 ) ) ;
#251 = DIRECTION ( 'NONE',  ( -0.0000000000000000000, 1.000000000000000000, -0.0000000000000000000 ) ) ;
#252 = DIRECTION ( 'NONE',  ( 0.0000000000000000000, 0.0000000000000000000, 1.000000000000000000 ) ) ;
#253 = AXIS2_PLACEMENT_3D ( 'NONE', #316, #103, #161 ) ;
#254 = ORIENTED_EDGE ( 'NONE', *, *, #336, .F. ) ;
#255 = CARTESIAN_POINT ( 'NONE',  ( 9.102234181381082100E-016, -8.324555320336756400, 0.0000000000000000000 ) ) ;
#256 = DIRECTION ( 'NONE',  ( 0.0000000000000000000, 0.0000000000000000000, 1.000000000000000000 ) ) ;
#257 = UNCERTAINTY_MEASURE_WITH_UNIT (LENGTH_MEASURE( 1.000000000000000100E-005 ), #300, 'distance_accuracy_value', 'NONE');
#258 = FACE_OUTER_BOUND ( 'NONE', #273, .T. ) ;
#259 = DIRECTION ( 'NONE',  ( -0.0000000000000000000, 1.000000000000000000, -0.0000000000000000000 ) ) ;
#260 =( GEOMETRIC_REPRESENTATION_CONTEXT ( 3 ) GLOBAL_UNCERTAINTY_ASSIGNED_CONTEXT ( ( #141 ) ) GLOBAL_UNIT_ASSIGNED_CONTEXT ( ( #297, #12, #330 ) ) REPRESENTATION_CONTEXT ( 'NONE', 'WORKASPACE' ) );
#261 = DIRECTION ( 'NONE',  ( 8.659560562354961200E-017, 0.7071067811865451300, -0.7071067811865499000 ) ) ;
#262 = CARTESIAN_POINT ( 'NONE',  ( -8.999999999999998200, -6.324555320336760800, 0.0000000000000000000 ) ) ;
#263 = UNCERTAINTY_MEASURE_WITH_UNIT (LENGTH_MEASURE( 1.000000000000000100E-005 ), #5, 'distance_accuracy_value', 'NONE');
#264 = DIRECTION ( 'NONE',  ( -1.000000000000000000, 1.020425574104004100E-016, 0.0000000000000000000 ) ) ;
#265 = ORIENTED_EDGE ( 'NONE', *, *, #218, .T. ) ;
#266 = CARTESIAN_POINT ( 'NONE',  ( 9.102234181381082100E-016, 5.957120021884471800, 0.0000000000000000000 ) ) ;
#267 = AXIS2_PLACEMENT_3D ( 'NONE', #277, #75, #14 ) ;
#268 = CIRCLE ( 'NONE', #248, 8.999999999999998200 ) ;
#269 = ORIENTED_EDGE ( 'NONE', *, *, #191, .T. ) ;
#270 = CIRCLE ( 'NONE', #153, 8.500000000000000000 ) ;
#271 = EDGE_LOOP ( 'NONE', ( #117, #247, #136, #269 ) ) ;
#272 = PRODUCT_DEFINITION_SHAPE ( 'NONE', 'NONE',  #154 ) ;
#273 = EDGE_LOOP ( 'NONE', ( #68, #166 ) ) ;
#274 = ORIENTED_EDGE ( 'NONE', *, *, #81, .F. ) ;
#275 = AXIS2_PLACEMENT_3D ( 'NONE', #18, #251, #45 ) ;
#276 = EDGE_CURVE ( 'NONE', #289, #3, #38, .T. ) ;
#277 = CARTESIAN_POINT ( 'NONE',  ( 9.102234181381082100E-016, 6.982120021884470300, 0.0000000000000000000 ) ) ;
#278 = CARTESIAN_POINT ( 'NONE',  ( 9.000000000000000000, -8.324555320336758200, 1.102182119232617500E-015 ) ) ;
#279 = ORIENTED_EDGE ( 'NONE', *, *, #317, .T. ) ;
#280 = EDGE_CURVE ( 'NONE', #86, #70, #51, .T. ) ;
#281 = FILL_AREA_STYLE ('',( #209 ) ) ;
#282 = DIRECTION ( 'NONE',  ( -1.000000000000000000, -1.927470528863119300E-016, 0.0000000000000000000 ) ) ;
#283 = LINE ( 'NONE', #329, #210 ) ;
#284 = DIRECTION ( 'NONE',  ( -1.000000000000000000, 0.0000000000000000000, 0.0000000000000000000 ) ) ;
#285 = DIRECTION ( 'NONE',  ( -1.000000000000000000, 1.303649056855427000E-016, 0.0000000000000000000 ) ) ;
#286 = DIRECTION ( 'NONE',  ( 0.0000000000000000000, 0.0000000000000000000, 1.000000000000000000 ) ) ;
#287 = AXIS2_PLACEMENT_3D ( 'NONE', #213, #160, #282 ) ;
#288 = CYLINDRICAL_SURFACE ( 'NONE', #340, 6.999999999999995600 ) ;
#289 = VERTEX_POINT ( 'NONE', #343 ) ;
#290 = CARTESIAN_POINT ( 'NONE',  ( 0.0000000000000000000, 0.0000000000000000000, 0.0000000000000000000 ) ) ;
#291 = PRESENTATION_LAYER_ASSIGNMENT (  '', '', ( #333 ) ) ;
#292 = PRESENTATION_LAYER_ASSIGNMENT (  '', '', ( #8 ) ) ;
#293 = PRODUCT_RELATED_PRODUCT_CATEGORY ( 'part', '', ( #58 ) ) ;
#294 = ORIENTED_EDGE ( 'NONE', *, *, #114, .T. ) ;
#295 = VERTEX_POINT ( 'NONE', #262 ) ;
#296 = SURFACE_SIDE_STYLE ('',( #128 ) ) ;
#297 =( LENGTH_UNIT ( ) NAMED_UNIT ( * ) SI_UNIT ( .MILLI., .METRE. ) );
#298 = ORIENTED_EDGE ( 'NONE', *, *, #76, .F. ) ;
#299 = CIRCLE ( 'NONE', #174, 11.00000000000000000 ) ;
#300 =( LENGTH_UNIT ( ) NAMED_UNIT ( * ) SI_UNIT ( .MILLI., .METRE. ) );
#301 = CARTESIAN_POINT ( 'NONE',  ( 9.102234181381082100E-016, 6.982120021884470300, 8.025000000000000400 ) ) ;
#302 = AXIS2_PLACEMENT_3D ( 'NONE', #217, #237, #346 ) ;
#303 = UNCERTAINTY_MEASURE_WITH_UNIT (LENGTH_MEASURE( 1.000000000000000100E-005 ), #100, 'distance_accuracy_value', 'NONE');
#304 = VERTEX_POINT ( 'NONE', #82 ) ;
#305 = ORIENTED_EDGE ( 'NONE', *, *, #195, .F. ) ;
#306 =( NAMED_UNIT ( * ) PLANE_ANGLE_UNIT ( ) SI_UNIT ( $, .RADIAN. ) );
#307 = CIRCLE ( 'NONE', #95, 8.025000000000000400 ) ;
#308 = CARTESIAN_POINT ( 'NONE',  ( 9.000000000000000000, -8.324555320336758200, 1.102182119232617500E-015 ) ) ;
#309 = ADVANCED_FACE ( 'NONE', ( #235 ), #63, .T. ) ;
#310 = MECHANICAL_DESIGN_GEOMETRIC_PRESENTATION_REPRESENTATION (  '', ( #15 ), #109 ) ;
#311 = CARTESIAN_POINT ( 'NONE',  ( 2.010215871573925500E-015, -8.324555320336759900, 0.0000000000000000000 ) ) ;
#312 = ADVANCED_FACE ( 'NONE', ( #331, #258 ), #189, .T. ) ;
#313 = CARTESIAN_POINT ( 'NONE',  ( 9.102234181381082100E-016, 6.982120021884470300, 8.025000000000000400 ) ) ;
#314 = FACE_OUTER_BOUND ( 'NONE', #32, .T. ) ;
#315 = ORIENTED_EDGE ( 'NONE', *, *, #6, .T. ) ;
#316 = CARTESIAN_POINT ( 'NONE',  ( 9.102234181381082100E-016, 6.982120021884470300, 0.0000000000000000000 ) ) ;
#317 = EDGE_CURVE ( 'NONE', #304, #244, #299, .T. ) ;
#318 = PLANE ( 'NONE',  #29 ) ;
#319 = EDGE_LOOP ( 'NONE', ( #298, #224, #64, #305 ) ) ;
#320 = CARTESIAN_POINT ( 'NONE',  ( 0.0000000000000000000, 0.0000000000000000000, 0.0000000000000000000 ) ) ;
#321 = ADVANCED_BREP_SHAPE_REPRESENTATION ( 'XW-USI-056-A-rotule', ( #56, #83 ), #1 ) ;
#322 = AXIS2_PLACEMENT_3D ( 'NONE', #126, #94, #173 ) ;
#323 = VERTEX_POINT ( 'NONE', #106 ) ;
#324 = FACE_OUTER_BOUND ( 'NONE', #17, .T. ) ;
#325 =( LENGTH_UNIT ( ) NAMED_UNIT ( * ) SI_UNIT ( .MILLI., .METRE. ) );
#326 =( NAMED_UNIT ( * ) PLANE_ANGLE_UNIT ( ) SI_UNIT ( $, .RADIAN. ) );
#327 = CIRCLE ( 'NONE', #165, 8.500000000000000000 ) ;
#328 = AXIS2_PLACEMENT_3D ( 'NONE', #2, #113, #31 ) ;
#329 = CARTESIAN_POINT ( 'NONE',  ( 1.767476177541255000E-015, 6.982120021884469500, -6.999999999999995600 ) ) ;
#330 =( NAMED_UNIT ( * ) SI_UNIT ( $, .STERADIAN. ) SOLID_ANGLE_UNIT ( ) );
#331 = FACE_BOUND ( 'NONE', #67, .T. ) ;
#332 = CIRCLE ( 'NONE', #69, 11.00000000000000000 ) ;
#333 = STYLED_ITEM ( 'NONE', ( #87 ), #107 ) ;
#334 = SURFACE_SIDE_STYLE ('',( #228 ) ) ;
#335 = DIRECTION ( 'NONE',  ( -0.0000000000000000000, 1.000000000000000000, -0.0000000000000000000 ) ) ;
#336 = EDGE_CURVE ( 'NONE', #304, #295, #132, .T. ) ;
#337 = COLOUR_RGB ( '',0.7921568627450980000, 0.8196078431372548800, 0.9333333333333333500 ) ;
#338 = EDGE_LOOP ( 'NONE', ( #246, #315, #120, #35 ) ) ;
#339 =( NAMED_UNIT ( * ) PLANE_ANGLE_UNIT ( ) SI_UNIT ( $, .RADIAN. ) );
#340 = AXIS2_PLACEMENT_3D ( 'NONE', #178, #335, #11 ) ;
#341 = ORIENTED_EDGE ( 'NONE', *, *, #81, .T. ) ;
#342 = DIRECTION ( 'NONE',  ( 1.303649056855427000E-016, 1.000000000000000000, -0.0000000000000000000 ) ) ;
#343 = CARTESIAN_POINT ( 'NONE',  ( 1.767476177541255000E-015, -8.324555320336756400, -6.999999999999997300 ) ) ;
#344 = ADVANCED_FACE ( 'NONE', ( #324 ), #99, .T. ) ;
#345 = FACE_OUTER_BOUND ( 'NONE', #138, .T. ) ;
#346 = DIRECTION ( 'NONE',  ( -1.000000000000000000, 1.303649056855427000E-016, 0.0000000000000000000 ) ) ;
ENDSEC;
END-ISO-10303-21;
