ISO-10303-21;
HEADER;
/* Generated by software containing ST-Developer
 * from STEP Tools, Inc. (www.steptools.com) 
 */

FILE_DESCRIPTION(
/* description */ (''),
/* implementation_level */ '2;1');

FILE_NAME(
/* name */ 
'/Users/dolu/Documents/GoogleDrive/Precisious/Products/Lens CAP/CAPV4_
Aluminium/v2/95/CAP_80mm_Aluminium v31.step',
/* time_stamp */ '2020-09-03T12:11:38+02:00',
/* author */ (''),
/* organization */ (''),
/* preprocessor_version */ 'ST-DEVELOPER v18.1',
/* originating_system */ 'Autodesk Translation Framework v9.3.0.1241',
/* authorisation */ '');

FILE_SCHEMA (('AUTOMOTIVE_DESIGN { 1 0 10303 214 3 1 1 }'));
ENDSEC;

DATA;
#10=MECHANICAL_DESIGN_GEOMETRIC_PRESENTATION_REPRESENTATION('',(#18,#19),
#254);
#11=ITEM_DEFINED_TRANSFORMATION($,$,#140,#162);
#12=(
REPRESENTATION_RELATIONSHIP($,$,#265,#264)
REPRESENTATION_RELATIONSHIP_WITH_TRANSFORMATION(#11)
SHAPE_REPRESENTATION_RELATIONSHIP()
);
#13=CONTEXT_DEPENDENT_SHAPE_REPRESENTATION(#12,#263);
#14=NEXT_ASSEMBLY_USAGE_OCCURRENCE('Cap:1','Cap:1','Cap:1',#267,#268,
'Cap:1');
#15=SHAPE_REPRESENTATION_RELATIONSHIP('SRR','None',#265,#16);
#16=ADVANCED_BREP_SHAPE_REPRESENTATION('',(#17),#253);
#17=MANIFOLD_SOLID_BREP('Cap',#126);
#18=STYLED_ITEM('',(#280),#122);
#19=STYLED_ITEM('',(#279),#17);
#20=FACE_BOUND('',#38,.T.);
#21=PLANE('',#149);
#22=PLANE('',#160);
#23=PLANE('',#161);
#24=TOROIDAL_SURFACE('',#145,38.9614378277661,1.);
#25=TOROIDAL_SURFACE('',#151,41.,0.5);
#26=TOROIDAL_SURFACE('',#158,41.,0.5);
#27=FACE_OUTER_BOUND('',#35,.T.);
#28=FACE_OUTER_BOUND('',#36,.T.);
#29=FACE_OUTER_BOUND('',#37,.T.);
#30=FACE_OUTER_BOUND('',#39,.T.);
#31=FACE_OUTER_BOUND('',#40,.T.);
#32=FACE_OUTER_BOUND('',#41,.T.);
#33=FACE_OUTER_BOUND('',#42,.T.);
#34=FACE_OUTER_BOUND('',#43,.T.);
#35=EDGE_LOOP('',(#86,#87,#88,#89,#90));
#36=EDGE_LOOP('',(#91,#92,#93,#94));
#37=EDGE_LOOP('',(#95));
#38=EDGE_LOOP('',(#96));
#39=EDGE_LOOP('',(#97,#98,#99,#100,#101));
#40=EDGE_LOOP('',(#102,#103,#104,#105,#106,#107));
#41=EDGE_LOOP('',(#108,#109,#110,#111,#112,#113));
#42=EDGE_LOOP('',(#114));
#43=EDGE_LOOP('',(#115));
#44=LINE('',#220,#46);
#45=LINE('',#242,#47);
#46=VECTOR('',#171,41.75);
#47=VECTOR('',#200,44.75);
#48=CIRCLE('',#142,40.5);
#49=CIRCLE('',#143,40.5);
#50=CIRCLE('',#144,40.5);
#51=CIRCLE('',#146,38.3);
#52=CIRCLE('',#147,1.);
#53=CIRCLE('',#148,38.9614378277661);
#54=CIRCLE('',#150,41.);
#55=CIRCLE('',#152,0.5);
#56=CIRCLE('',#153,41.5);
#57=CIRCLE('',#154,41.5);
#58=CIRCLE('',#156,41.5);
#59=CIRCLE('',#157,41.5);
#60=CIRCLE('',#159,0.5);
#61=VERTEX_POINT('',#216);
#62=VERTEX_POINT('',#217);
#63=VERTEX_POINT('',#219);
#64=VERTEX_POINT('',#224);
#65=VERTEX_POINT('',#226);
#66=VERTEX_POINT('',#230);
#67=VERTEX_POINT('',#233);
#68=VERTEX_POINT('',#235);
#69=VERTEX_POINT('',#239);
#70=VERTEX_POINT('',#240);
#71=EDGE_CURVE('',#61,#62,#48,.T.);
#72=EDGE_CURVE('',#61,#63,#44,.T.);
#73=EDGE_CURVE('',#63,#63,#49,.T.);
#74=EDGE_CURVE('',#62,#61,#50,.T.);
#75=EDGE_CURVE('',#64,#64,#51,.T.);
#76=EDGE_CURVE('',#64,#65,#52,.T.);
#77=EDGE_CURVE('',#65,#65,#53,.T.);
#78=EDGE_CURVE('',#66,#66,#54,.T.);
#79=EDGE_CURVE('',#66,#67,#55,.T.);
#80=EDGE_CURVE('',#67,#68,#56,.T.);
#81=EDGE_CURVE('',#68,#67,#57,.T.);
#82=EDGE_CURVE('',#69,#70,#58,.T.);
#83=EDGE_CURVE('',#69,#68,#45,.T.);
#84=EDGE_CURVE('',#70,#69,#59,.T.);
#85=EDGE_CURVE('',#62,#70,#60,.T.);
#86=ORIENTED_EDGE('',*,*,#71,.F.);
#87=ORIENTED_EDGE('',*,*,#72,.T.);
#88=ORIENTED_EDGE('',*,*,#73,.T.);
#89=ORIENTED_EDGE('',*,*,#72,.F.);
#90=ORIENTED_EDGE('',*,*,#74,.F.);
#91=ORIENTED_EDGE('',*,*,#75,.T.);
#92=ORIENTED_EDGE('',*,*,#76,.T.);
#93=ORIENTED_EDGE('',*,*,#77,.T.);
#94=ORIENTED_EDGE('',*,*,#76,.F.);
#95=ORIENTED_EDGE('',*,*,#78,.F.);
#96=ORIENTED_EDGE('',*,*,#77,.F.);
#97=ORIENTED_EDGE('',*,*,#78,.T.);
#98=ORIENTED_EDGE('',*,*,#79,.T.);
#99=ORIENTED_EDGE('',*,*,#80,.T.);
#100=ORIENTED_EDGE('',*,*,#81,.T.);
#101=ORIENTED_EDGE('',*,*,#79,.F.);
#102=ORIENTED_EDGE('',*,*,#82,.F.);
#103=ORIENTED_EDGE('',*,*,#83,.T.);
#104=ORIENTED_EDGE('',*,*,#80,.F.);
#105=ORIENTED_EDGE('',*,*,#81,.F.);
#106=ORIENTED_EDGE('',*,*,#83,.F.);
#107=ORIENTED_EDGE('',*,*,#84,.F.);
#108=ORIENTED_EDGE('',*,*,#71,.T.);
#109=ORIENTED_EDGE('',*,*,#85,.T.);
#110=ORIENTED_EDGE('',*,*,#84,.T.);
#111=ORIENTED_EDGE('',*,*,#82,.T.);
#112=ORIENTED_EDGE('',*,*,#85,.F.);
#113=ORIENTED_EDGE('',*,*,#74,.T.);
#114=ORIENTED_EDGE('',*,*,#75,.F.);
#115=ORIENTED_EDGE('',*,*,#73,.F.);
#116=CYLINDRICAL_SURFACE('',#141,40.5);
#117=CYLINDRICAL_SURFACE('',#155,41.5);
#118=ADVANCED_FACE('',(#27),#116,.F.);
#119=ADVANCED_FACE('',(#28),#24,.T.);
#120=ADVANCED_FACE('',(#29,#20),#21,.F.);
#121=ADVANCED_FACE('',(#30),#25,.T.);
#122=ADVANCED_FACE('',(#31),#117,.T.);
#123=ADVANCED_FACE('',(#32),#26,.T.);
#124=ADVANCED_FACE('',(#33),#22,.F.);
#125=ADVANCED_FACE('',(#34),#23,.T.);
#126=CLOSED_SHELL('',(#118,#119,#120,#121,#122,#123,#124,#125));
#127=DERIVED_UNIT_ELEMENT(#129,1.);
#128=DERIVED_UNIT_ELEMENT(#256,3.);
#129=(
MASS_UNIT()
NAMED_UNIT(*)
SI_UNIT(.KILO.,.GRAM.)
);
#130=DERIVED_UNIT((#127,#128));
#131=MEASURE_REPRESENTATION_ITEM('density measure',
POSITIVE_RATIO_MEASURE(7850.),#130);
#132=PROPERTY_DEFINITION_REPRESENTATION(#137,#134);
#133=PROPERTY_DEFINITION_REPRESENTATION(#138,#135);
#134=REPRESENTATION('material name',(#136),#253);
#135=REPRESENTATION('density',(#131),#253);
#136=DESCRIPTIVE_REPRESENTATION_ITEM('Steel','Steel');
#137=PROPERTY_DEFINITION('material property','material name',#268);
#138=PROPERTY_DEFINITION('material property','density of part',#268);
#139=AXIS2_PLACEMENT_3D('placement',#213,#163,#164);
#140=AXIS2_PLACEMENT_3D('placement',#214,#165,#166);
#141=AXIS2_PLACEMENT_3D('',#215,#167,#168);
#142=AXIS2_PLACEMENT_3D('',#218,#169,#170);
#143=AXIS2_PLACEMENT_3D('',#221,#172,#173);
#144=AXIS2_PLACEMENT_3D('',#222,#174,#175);
#145=AXIS2_PLACEMENT_3D('',#223,#176,#177);
#146=AXIS2_PLACEMENT_3D('',#225,#178,#179);
#147=AXIS2_PLACEMENT_3D('',#227,#180,#181);
#148=AXIS2_PLACEMENT_3D('',#228,#182,#183);
#149=AXIS2_PLACEMENT_3D('',#229,#184,#185);
#150=AXIS2_PLACEMENT_3D('',#231,#186,#187);
#151=AXIS2_PLACEMENT_3D('',#232,#188,#189);
#152=AXIS2_PLACEMENT_3D('',#234,#190,#191);
#153=AXIS2_PLACEMENT_3D('',#236,#192,#193);
#154=AXIS2_PLACEMENT_3D('',#237,#194,#195);
#155=AXIS2_PLACEMENT_3D('',#238,#196,#197);
#156=AXIS2_PLACEMENT_3D('',#241,#198,#199);
#157=AXIS2_PLACEMENT_3D('',#243,#201,#202);
#158=AXIS2_PLACEMENT_3D('',#244,#203,#204);
#159=AXIS2_PLACEMENT_3D('',#245,#205,#206);
#160=AXIS2_PLACEMENT_3D('',#246,#207,#208);
#161=AXIS2_PLACEMENT_3D('',#247,#209,#210);
#162=AXIS2_PLACEMENT_3D('',#248,#211,#212);
#163=DIRECTION('axis',(0.,0.,1.));
#164=DIRECTION('refdir',(1.,0.,0.));
#165=DIRECTION('axis',(0.,0.,1.));
#166=DIRECTION('refdir',(1.,0.,0.));
#167=DIRECTION('center_axis',(0.,-1.,0.));
#168=DIRECTION('ref_axis',(-1.,0.,0.));
#169=DIRECTION('center_axis',(0.,-1.,0.));
#170=DIRECTION('ref_axis',(-1.,0.,0.));
#171=DIRECTION('',(0.,-1.,0.));
#172=DIRECTION('center_axis',(0.,-1.,0.));
#173=DIRECTION('ref_axis',(-1.,0.,0.));
#174=DIRECTION('center_axis',(0.,-1.,0.));
#175=DIRECTION('ref_axis',(-1.,0.,0.));
#176=DIRECTION('center_axis',(0.,-1.,0.));
#177=DIRECTION('ref_axis',(-1.,0.,0.));
#178=DIRECTION('center_axis',(0.,1.,0.));
#179=DIRECTION('ref_axis',(1.,0.,0.));
#180=DIRECTION('center_axis',(1.22464679914735E-16,0.,1.));
#181=DIRECTION('ref_axis',(1.,0.,-1.22464679914735E-16));
#182=DIRECTION('center_axis',(0.,-1.,0.));
#183=DIRECTION('ref_axis',(-1.,0.,0.));
#184=DIRECTION('center_axis',(0.,1.,0.));
#185=DIRECTION('ref_axis',(1.,0.,0.));
#186=DIRECTION('center_axis',(0.,1.,0.));
#187=DIRECTION('ref_axis',(1.,0.,0.));
#188=DIRECTION('center_axis',(0.,-1.,0.));
#189=DIRECTION('ref_axis',(0.,0.,-1.));
#190=DIRECTION('center_axis',(-1.,0.,-1.22464679914735E-16));
#191=DIRECTION('ref_axis',(-1.22464679914735E-16,0.,1.));
#192=DIRECTION('center_axis',(0.,-1.,0.));
#193=DIRECTION('ref_axis',(1.,0.,0.));
#194=DIRECTION('center_axis',(0.,-1.,0.));
#195=DIRECTION('ref_axis',(1.,0.,0.));
#196=DIRECTION('center_axis',(0.,1.,0.));
#197=DIRECTION('ref_axis',(1.,0.,0.));
#198=DIRECTION('center_axis',(0.,1.,0.));
#199=DIRECTION('ref_axis',(1.,0.,0.));
#200=DIRECTION('',(0.,-1.,0.));
#201=DIRECTION('center_axis',(0.,1.,0.));
#202=DIRECTION('ref_axis',(1.,0.,0.));
#203=DIRECTION('center_axis',(0.,1.,0.));
#204=DIRECTION('ref_axis',(0.,0.,1.));
#205=DIRECTION('center_axis',(-1.,0.,1.22464679914735E-16));
#206=DIRECTION('ref_axis',(-1.22464679914735E-16,0.,-1.));
#207=DIRECTION('center_axis',(0.,1.,0.));
#208=DIRECTION('ref_axis',(1.,0.,0.));
#209=DIRECTION('center_axis',(0.,1.,0.));
#210=DIRECTION('ref_axis',(-1.,0.,0.));
#211=DIRECTION('',(-1.04367278889852E-15,1.35259906310299E-16,0.999999999999998));
#212=DIRECTION('',(1.,-2.22044604925031E-16,7.04948252550076E-16));
#213=CARTESIAN_POINT('',(0.,0.,0.));
#214=CARTESIAN_POINT('',(0.,0.,0.));
#215=CARTESIAN_POINT('Origin',(0.,13.,0.));
#216=CARTESIAN_POINT('',(40.5,12.5,4.95981953654678E-15));
#217=CARTESIAN_POINT('',(-4.95981953654678E-15,12.5,-40.5));
#218=CARTESIAN_POINT('Origin',(0.,12.5,0.));
#219=CARTESIAN_POINT('',(40.5,2.5,4.95981953654678E-15));
#220=CARTESIAN_POINT('',(40.5,13.,4.95981953654678E-15));
#221=CARTESIAN_POINT('Origin',(0.,2.5,0.));
#222=CARTESIAN_POINT('Origin',(0.,12.5,0.));
#223=CARTESIAN_POINT('Origin',(0.,2.,0.));
#224=CARTESIAN_POINT('',(38.3,1.25,-4.69039724073436E-15));
#225=CARTESIAN_POINT('Origin',(0.,1.25,0.));
#226=CARTESIAN_POINT('',(38.9614378277661,1.,4.77140001259524E-15));
#227=CARTESIAN_POINT('Origin',(38.9614378277661,2.,-4.77140001259524E-15));
#228=CARTESIAN_POINT('Origin',(0.,1.,0.));
#229=CARTESIAN_POINT('Origin',(0.,1.,0.));
#230=CARTESIAN_POINT('',(-5.02105187650415E-15,1.,41.));
#231=CARTESIAN_POINT('Origin',(0.,1.,0.));
#232=CARTESIAN_POINT('Origin',(0.,1.5,0.));
#233=CARTESIAN_POINT('',(-5.08228421646152E-15,1.5,41.5));
#234=CARTESIAN_POINT('Origin',(-5.02105187650415E-15,1.5,41.));
#235=CARTESIAN_POINT('',(-41.5,1.5,-5.08228421646152E-15));
#236=CARTESIAN_POINT('Origin',(0.,1.5,0.));
#237=CARTESIAN_POINT('Origin',(0.,1.5,0.));
#238=CARTESIAN_POINT('Origin',(0.,0.,0.));
#239=CARTESIAN_POINT('',(-41.5,12.5,5.08228421646152E-15));
#240=CARTESIAN_POINT('',(-5.08228421646152E-15,12.5,-41.5));
#241=CARTESIAN_POINT('Origin',(0.,12.5,0.));
#242=CARTESIAN_POINT('',(-41.5,0.,5.08228421646152E-15));
#243=CARTESIAN_POINT('Origin',(0.,12.5,0.));
#244=CARTESIAN_POINT('Origin',(0.,12.5,0.));
#245=CARTESIAN_POINT('Origin',(-5.02105187650415E-15,12.5,-41.));
#246=CARTESIAN_POINT('Origin',(0.,1.25,0.));
#247=CARTESIAN_POINT('Origin',(0.,2.5,0.));
#248=CARTESIAN_POINT('',(-1.12992996115704,-0.891729292132799,-16.9953148218483));
#249=UNCERTAINTY_MEASURE_WITH_UNIT(LENGTH_MEASURE(0.01),#255,
'DISTANCE_ACCURACY_VALUE',
'Maximum model space distance between geometric entities at asserted c
onnectivities');
#250=UNCERTAINTY_MEASURE_WITH_UNIT(LENGTH_MEASURE(0.01),#255,
'DISTANCE_ACCURACY_VALUE',
'Maximum model space distance between geometric entities at asserted c
onnectivities');
#251=UNCERTAINTY_MEASURE_WITH_UNIT(LENGTH_MEASURE(0.01),#255,
'DISTANCE_ACCURACY_VALUE',
'Maximum model space distance between geometric entities at asserted c
onnectivities');
#252=(
GEOMETRIC_REPRESENTATION_CONTEXT(3)
GLOBAL_UNCERTAINTY_ASSIGNED_CONTEXT((#249))
GLOBAL_UNIT_ASSIGNED_CONTEXT((#255,#257,#258))
REPRESENTATION_CONTEXT('','3D')
);
#253=(
GEOMETRIC_REPRESENTATION_CONTEXT(3)
GLOBAL_UNCERTAINTY_ASSIGNED_CONTEXT((#250))
GLOBAL_UNIT_ASSIGNED_CONTEXT((#255,#257,#258))
REPRESENTATION_CONTEXT('','3D')
);
#254=(
GEOMETRIC_REPRESENTATION_CONTEXT(3)
GLOBAL_UNCERTAINTY_ASSIGNED_CONTEXT((#251))
GLOBAL_UNIT_ASSIGNED_CONTEXT((#255,#257,#258))
REPRESENTATION_CONTEXT('','3D')
);
#255=(
LENGTH_UNIT()
NAMED_UNIT(*)
SI_UNIT(.MILLI.,.METRE.)
);
#256=(
LENGTH_UNIT()
NAMED_UNIT(*)
SI_UNIT($,.METRE.)
);
#257=(
NAMED_UNIT(*)
PLANE_ANGLE_UNIT()
SI_UNIT($,.RADIAN.)
);
#258=(
NAMED_UNIT(*)
SI_UNIT($,.STERADIAN.)
SOLID_ANGLE_UNIT()
);
#259=SHAPE_DEFINITION_REPRESENTATION(#261,#264);
#260=SHAPE_DEFINITION_REPRESENTATION(#262,#265);
#261=PRODUCT_DEFINITION_SHAPE('',$,#267);
#262=PRODUCT_DEFINITION_SHAPE('',$,#268);
#263=PRODUCT_DEFINITION_SHAPE($,$,#14);
#264=SHAPE_REPRESENTATION('',(#139,#162),#252);
#265=SHAPE_REPRESENTATION('',(#140),#253);
#266=PRODUCT_DEFINITION_CONTEXT('part definition',#274,'design');
#267=PRODUCT_DEFINITION('CAP_80mm_Aluminium','CAP_80mm_Aluminium v31',#269,
#266);
#268=PRODUCT_DEFINITION('Cap','Cap',#270,#266);
#269=PRODUCT_DEFINITION_FORMATION('',$,#276);
#270=PRODUCT_DEFINITION_FORMATION('',$,#277);
#271=PRODUCT_RELATED_PRODUCT_CATEGORY('CAP_80mm_Aluminium v31',
'CAP_80mm_Aluminium v31',(#276));
#272=PRODUCT_RELATED_PRODUCT_CATEGORY('Cap','Cap',(#277));
#273=APPLICATION_PROTOCOL_DEFINITION('international standard',
'automotive_design',2009,#274);
#274=APPLICATION_CONTEXT(
'Core Data for Automotive Mechanical Design Process');
#275=PRODUCT_CONTEXT('part definition',#274,'mechanical');
#276=PRODUCT('CAP_80mm_Aluminium','CAP_80mm_Aluminium v31',$,(#275));
#277=PRODUCT('Cap','Cap',$,(#275));
#278=PRESENTATION_STYLE_ASSIGNMENT((#281));
#279=PRESENTATION_STYLE_ASSIGNMENT((#282));
#280=PRESENTATION_STYLE_ASSIGNMENT((#283));
#281=SURFACE_STYLE_USAGE(.BOTH.,#284);
#282=SURFACE_STYLE_USAGE(.BOTH.,#285);
#283=SURFACE_STYLE_USAGE(.BOTH.,#286);
#284=SURFACE_SIDE_STYLE('',(#287));
#285=SURFACE_SIDE_STYLE('',(#288));
#286=SURFACE_SIDE_STYLE('',(#289));
#287=SURFACE_STYLE_FILL_AREA(#290);
#288=SURFACE_STYLE_FILL_AREA(#291);
#289=SURFACE_STYLE_FILL_AREA(#292);
#290=FILL_AREA_STYLE('Steel - Satin',(#293));
#291=FILL_AREA_STYLE('Aluminum - Anodized Glossy (Blue)',(#294));
#292=FILL_AREA_STYLE('Aluminum - Knurled',(#295));
#293=FILL_AREA_STYLE_COLOUR('Steel - Satin',#296);
#294=FILL_AREA_STYLE_COLOUR('Aluminum - Anodized Glossy (Blue)',#297);
#295=FILL_AREA_STYLE_COLOUR('Aluminum - Knurled',#298);
#296=COLOUR_RGB('Steel - Satin',0.627450980392157,0.627450980392157,0.627450980392157);
#297=COLOUR_RGB('Aluminum - Anodized Glossy (Blue)',0.203921568627451,0.203921568627451,
0.203921568627451);
#298=COLOUR_RGB('Aluminum - Knurled',0.0549019607843137,0.0549019607843137,
0.0549019607843137);
ENDSEC;
END-ISO-10303-21;
