ISO-10303-21;
HEADER;
/* Generated by software containing ST-Developer
 * from STEP Tools, Inc. (www.steptools.com) 
 */

FILE_DESCRIPTION(
/* description */ (''),
/* implementation_level */ '2;1');

FILE_NAME(
/* name */ 
'C:/Users/K\X\E9vin/Documents/AMZ/Produits Source/Baguette de sourcier
/poign\X\E9e 18mm bois.step',
/* time_stamp */ '2020-10-12T21:57:13+02:00',
/* author */ (''),
/* organization */ (''),
/* preprocessor_version */ 'ST-DEVELOPER v18.1',
/* originating_system */ 'Autodesk Translation Framework v9.3.0.1241',
/* authorisation */ '');

FILE_SCHEMA (('AUTOMOTIVE_DESIGN { 1 0 10303 214 3 1 1 }'));
ENDSEC;

DATA;
#10=MECHANICAL_DESIGN_GEOMETRIC_PRESENTATION_REPRESENTATION('',(#13,#14,
#15,#16),#220);
#11=SHAPE_REPRESENTATION_RELATIONSHIP('SRR','None',#227,#12);
#12=ADVANCED_BREP_SHAPE_REPRESENTATION('',(#17,#18),#219);
#13=STYLED_ITEM('',(#237),#17);
#14=STYLED_ITEM('',(#237),#116);
#15=STYLED_ITEM('',(#237),#117);
#16=STYLED_ITEM('',(#236),#18);
#17=MANIFOLD_SOLID_BREP('Wooden cap handle',#119);
#18=MANIFOLD_SOLID_BREP('Wooden swivel handle',#120);
#19=FACE_BOUND('',#37,.T.);
#20=FACE_BOUND('',#40,.T.);
#21=FACE_BOUND('',#44,.T.);
#22=FACE_BOUND('',#46,.T.);
#23=PLANE('',#137);
#24=PLANE('',#141);
#25=PLANE('',#148);
#26=PLANE('',#149);
#27=FACE_OUTER_BOUND('',#35,.T.);
#28=FACE_OUTER_BOUND('',#36,.T.);
#29=FACE_OUTER_BOUND('',#38,.T.);
#30=FACE_OUTER_BOUND('',#39,.T.);
#31=FACE_OUTER_BOUND('',#41,.T.);
#32=FACE_OUTER_BOUND('',#42,.T.);
#33=FACE_OUTER_BOUND('',#43,.T.);
#34=FACE_OUTER_BOUND('',#45,.T.);
#35=EDGE_LOOP('',(#83,#84,#85,#86));
#36=EDGE_LOOP('',(#87));
#37=EDGE_LOOP('',(#88));
#38=EDGE_LOOP('',(#89,#90,#91,#92));
#39=EDGE_LOOP('',(#93));
#40=EDGE_LOOP('',(#94));
#41=EDGE_LOOP('',(#95,#96,#97,#98));
#42=EDGE_LOOP('',(#99,#100,#101,#102));
#43=EDGE_LOOP('',(#103));
#44=EDGE_LOOP('',(#104));
#45=EDGE_LOOP('',(#105));
#46=EDGE_LOOP('',(#106));
#47=LINE('',#193,#51);
#48=LINE('',#201,#52);
#49=LINE('',#207,#53);
#50=LINE('',#213,#54);
#51=VECTOR('',#156,1.5);
#52=VECTOR('',#167,9.);
#53=VECTOR('',#174,1.7);
#54=VECTOR('',#181,9.);
#55=CIRCLE('',#135,1.5);
#56=CIRCLE('',#136,1.5);
#57=CIRCLE('',#138,9.);
#58=CIRCLE('',#140,9.);
#59=CIRCLE('',#143,1.7);
#60=CIRCLE('',#144,1.7);
#61=CIRCLE('',#146,9.);
#62=CIRCLE('',#147,9.);
#63=VERTEX_POINT('',#190);
#64=VERTEX_POINT('',#192);
#65=VERTEX_POINT('',#196);
#66=VERTEX_POINT('',#199);
#67=VERTEX_POINT('',#204);
#68=VERTEX_POINT('',#206);
#69=VERTEX_POINT('',#210);
#70=VERTEX_POINT('',#212);
#71=EDGE_CURVE('',#63,#63,#55,.T.);
#72=EDGE_CURVE('',#63,#64,#47,.T.);
#73=EDGE_CURVE('',#64,#64,#56,.T.);
#74=EDGE_CURVE('',#65,#65,#57,.T.);
#75=EDGE_CURVE('',#66,#66,#58,.T.);
#76=EDGE_CURVE('',#66,#65,#48,.T.);
#77=EDGE_CURVE('',#67,#67,#59,.T.);
#78=EDGE_CURVE('',#67,#68,#49,.T.);
#79=EDGE_CURVE('',#68,#68,#60,.T.);
#80=EDGE_CURVE('',#69,#69,#61,.T.);
#81=EDGE_CURVE('',#69,#70,#50,.T.);
#82=EDGE_CURVE('',#70,#70,#62,.T.);
#83=ORIENTED_EDGE('',*,*,#71,.F.);
#84=ORIENTED_EDGE('',*,*,#72,.T.);
#85=ORIENTED_EDGE('',*,*,#73,.F.);
#86=ORIENTED_EDGE('',*,*,#72,.F.);
#87=ORIENTED_EDGE('',*,*,#74,.T.);
#88=ORIENTED_EDGE('',*,*,#71,.T.);
#89=ORIENTED_EDGE('',*,*,#75,.F.);
#90=ORIENTED_EDGE('',*,*,#76,.T.);
#91=ORIENTED_EDGE('',*,*,#74,.F.);
#92=ORIENTED_EDGE('',*,*,#76,.F.);
#93=ORIENTED_EDGE('',*,*,#75,.T.);
#94=ORIENTED_EDGE('',*,*,#73,.T.);
#95=ORIENTED_EDGE('',*,*,#77,.F.);
#96=ORIENTED_EDGE('',*,*,#78,.T.);
#97=ORIENTED_EDGE('',*,*,#79,.T.);
#98=ORIENTED_EDGE('',*,*,#78,.F.);
#99=ORIENTED_EDGE('',*,*,#80,.F.);
#100=ORIENTED_EDGE('',*,*,#81,.T.);
#101=ORIENTED_EDGE('',*,*,#82,.T.);
#102=ORIENTED_EDGE('',*,*,#81,.F.);
#103=ORIENTED_EDGE('',*,*,#80,.T.);
#104=ORIENTED_EDGE('',*,*,#77,.T.);
#105=ORIENTED_EDGE('',*,*,#82,.F.);
#106=ORIENTED_EDGE('',*,*,#79,.F.);
#107=CYLINDRICAL_SURFACE('',#134,1.5);
#108=CYLINDRICAL_SURFACE('',#139,9.);
#109=CYLINDRICAL_SURFACE('',#142,1.7);
#110=CYLINDRICAL_SURFACE('',#145,9.);
#111=ADVANCED_FACE('',(#27),#107,.F.);
#112=ADVANCED_FACE('',(#28,#19),#23,.F.);
#113=ADVANCED_FACE('',(#29),#108,.T.);
#114=ADVANCED_FACE('',(#30,#20),#24,.T.);
#115=ADVANCED_FACE('',(#31),#109,.F.);
#116=ADVANCED_FACE('',(#32),#110,.T.);
#117=ADVANCED_FACE('',(#33,#21),#25,.T.);
#118=ADVANCED_FACE('',(#34,#22),#26,.F.);
#119=CLOSED_SHELL('',(#111,#112,#113,#114));
#120=CLOSED_SHELL('',(#115,#116,#117,#118));
#121=DERIVED_UNIT_ELEMENT(#123,1.);
#122=DERIVED_UNIT_ELEMENT(#222,3.);
#123=(
MASS_UNIT()
NAMED_UNIT(*)
SI_UNIT(.KILO.,.GRAM.)
);
#124=DERIVED_UNIT((#121,#122));
#125=MEASURE_REPRESENTATION_ITEM('density measure',
POSITIVE_RATIO_MEASURE(7850.),#124);
#126=PROPERTY_DEFINITION_REPRESENTATION(#131,#128);
#127=PROPERTY_DEFINITION_REPRESENTATION(#132,#129);
#128=REPRESENTATION('material name',(#130),#219);
#129=REPRESENTATION('density',(#125),#219);
#130=DESCRIPTIVE_REPRESENTATION_ITEM('Acier','Acier');
#131=PROPERTY_DEFINITION('material property','material name',#229);
#132=PROPERTY_DEFINITION('material property','density of part',#229);
#133=AXIS2_PLACEMENT_3D('placement',#188,#150,#151);
#134=AXIS2_PLACEMENT_3D('',#189,#152,#153);
#135=AXIS2_PLACEMENT_3D('',#191,#154,#155);
#136=AXIS2_PLACEMENT_3D('',#194,#157,#158);
#137=AXIS2_PLACEMENT_3D('',#195,#159,#160);
#138=AXIS2_PLACEMENT_3D('',#197,#161,#162);
#139=AXIS2_PLACEMENT_3D('',#198,#163,#164);
#140=AXIS2_PLACEMENT_3D('',#200,#165,#166);
#141=AXIS2_PLACEMENT_3D('',#202,#168,#169);
#142=AXIS2_PLACEMENT_3D('',#203,#170,#171);
#143=AXIS2_PLACEMENT_3D('',#205,#172,#173);
#144=AXIS2_PLACEMENT_3D('',#208,#175,#176);
#145=AXIS2_PLACEMENT_3D('',#209,#177,#178);
#146=AXIS2_PLACEMENT_3D('',#211,#179,#180);
#147=AXIS2_PLACEMENT_3D('',#214,#182,#183);
#148=AXIS2_PLACEMENT_3D('',#215,#184,#185);
#149=AXIS2_PLACEMENT_3D('',#216,#186,#187);
#150=DIRECTION('axis',(0.,0.,1.));
#151=DIRECTION('refdir',(1.,0.,0.));
#152=DIRECTION('center_axis',(0.,0.,-1.));
#153=DIRECTION('ref_axis',(-1.,0.,0.));
#154=DIRECTION('center_axis',(0.,0.,-1.));
#155=DIRECTION('ref_axis',(-1.,0.,0.));
#156=DIRECTION('',(0.,0.,-1.));
#157=DIRECTION('center_axis',(0.,0.,1.));
#158=DIRECTION('ref_axis',(-1.,0.,0.));
#159=DIRECTION('center_axis',(0.,0.,-1.));
#160=DIRECTION('ref_axis',(1.,0.,0.));
#161=DIRECTION('center_axis',(0.,0.,1.));
#162=DIRECTION('ref_axis',(1.,0.,0.));
#163=DIRECTION('center_axis',(0.,0.,-1.));
#164=DIRECTION('ref_axis',(1.,0.,0.));
#165=DIRECTION('center_axis',(0.,0.,-1.));
#166=DIRECTION('ref_axis',(1.,0.,0.));
#167=DIRECTION('',(0.,0.,1.));
#168=DIRECTION('center_axis',(0.,0.,-1.));
#169=DIRECTION('ref_axis',(1.,0.,0.));
#170=DIRECTION('center_axis',(0.,0.,1.));
#171=DIRECTION('ref_axis',(-1.,0.,0.));
#172=DIRECTION('center_axis',(0.,0.,-1.));
#173=DIRECTION('ref_axis',(-1.,0.,0.));
#174=DIRECTION('',(0.,0.,-1.));
#175=DIRECTION('center_axis',(0.,0.,-1.));
#176=DIRECTION('ref_axis',(-1.,0.,0.));
#177=DIRECTION('center_axis',(0.,0.,1.));
#178=DIRECTION('ref_axis',(-1.,0.,0.));
#179=DIRECTION('center_axis',(0.,0.,1.));
#180=DIRECTION('ref_axis',(-1.,0.,0.));
#181=DIRECTION('',(0.,0.,-1.));
#182=DIRECTION('center_axis',(0.,0.,1.));
#183=DIRECTION('ref_axis',(-1.,0.,0.));
#184=DIRECTION('center_axis',(0.,0.,1.));
#185=DIRECTION('ref_axis',(-1.,0.,0.));
#186=DIRECTION('center_axis',(0.,0.,1.));
#187=DIRECTION('ref_axis',(-1.,0.,0.));
#188=CARTESIAN_POINT('',(0.,0.,0.));
#189=CARTESIAN_POINT('Origin',(0.,0.,8.));
#190=CARTESIAN_POINT('',(1.5,1.83697019872103E-16,8.));
#191=CARTESIAN_POINT('Origin',(0.,0.,8.));
#192=CARTESIAN_POINT('',(1.5,1.83697019872103E-16,-2.));
#193=CARTESIAN_POINT('',(1.5,-1.83697019872103E-16,8.));
#194=CARTESIAN_POINT('Origin',(0.,0.,-2.));
#195=CARTESIAN_POINT('Origin',(0.,0.,8.));
#196=CARTESIAN_POINT('',(-9.,1.10218211923262E-15,8.));
#197=CARTESIAN_POINT('Origin',(0.,0.,8.));
#198=CARTESIAN_POINT('Origin',(0.,0.,0.));
#199=CARTESIAN_POINT('',(-9.,1.10218211923262E-15,-2.));
#200=CARTESIAN_POINT('Origin',(0.,0.,-2.));
#201=CARTESIAN_POINT('',(-9.,1.10218211923262E-15,0.));
#202=CARTESIAN_POINT('Origin',(0.,0.,-2.));
#203=CARTESIAN_POINT('Origin',(0.,0.,8.5));
#204=CARTESIAN_POINT('',(1.7,2.0818995585505E-16,111.5));
#205=CARTESIAN_POINT('Origin',(0.,0.,111.5));
#206=CARTESIAN_POINT('',(1.7,2.0818995585505E-16,8.5));
#207=CARTESIAN_POINT('',(1.7,2.0818995585505E-16,8.5));
#208=CARTESIAN_POINT('Origin',(0.,0.,8.5));
#209=CARTESIAN_POINT('Origin',(0.,0.,8.5));
#210=CARTESIAN_POINT('',(9.,1.10218211923262E-15,111.5));
#211=CARTESIAN_POINT('Origin',(0.,0.,111.5));
#212=CARTESIAN_POINT('',(9.,1.10218211923262E-15,8.5));
#213=CARTESIAN_POINT('',(9.,1.10218211923262E-15,8.5));
#214=CARTESIAN_POINT('Origin',(0.,0.,8.5));
#215=CARTESIAN_POINT('Origin',(0.,0.,111.5));
#216=CARTESIAN_POINT('Origin',(0.,0.,8.5));
#217=UNCERTAINTY_MEASURE_WITH_UNIT(LENGTH_MEASURE(0.01),#221,
'DISTANCE_ACCURACY_VALUE',
'Maximum model space distance between geometric entities at asserted c
onnectivities');
#218=UNCERTAINTY_MEASURE_WITH_UNIT(LENGTH_MEASURE(0.01),#221,
'DISTANCE_ACCURACY_VALUE',
'Maximum model space distance between geometric entities at asserted c
onnectivities');
#219=(
GEOMETRIC_REPRESENTATION_CONTEXT(3)
GLOBAL_UNCERTAINTY_ASSIGNED_CONTEXT((#217))
GLOBAL_UNIT_ASSIGNED_CONTEXT((#221,#223,#224))
REPRESENTATION_CONTEXT('','3D')
);
#220=(
GEOMETRIC_REPRESENTATION_CONTEXT(3)
GLOBAL_UNCERTAINTY_ASSIGNED_CONTEXT((#218))
GLOBAL_UNIT_ASSIGNED_CONTEXT((#221,#223,#224))
REPRESENTATION_CONTEXT('','3D')
);
#221=(
LENGTH_UNIT()
NAMED_UNIT(*)
SI_UNIT(.MILLI.,.METRE.)
);
#222=(
LENGTH_UNIT()
NAMED_UNIT(*)
SI_UNIT($,.METRE.)
);
#223=(
NAMED_UNIT(*)
PLANE_ANGLE_UNIT()
SI_UNIT($,.RADIAN.)
);
#224=(
NAMED_UNIT(*)
SI_UNIT($,.STERADIAN.)
SOLID_ANGLE_UNIT()
);
#225=SHAPE_DEFINITION_REPRESENTATION(#226,#227);
#226=PRODUCT_DEFINITION_SHAPE('',$,#229);
#227=SHAPE_REPRESENTATION('',(#133),#219);
#228=PRODUCT_DEFINITION_CONTEXT('part definition',#233,'design');
#229=PRODUCT_DEFINITION('poign\X\E9e 18mm bois','poign\X\E9e 18mm bois
 v1',#230,#228);
#230=PRODUCT_DEFINITION_FORMATION('',$,#235);
#231=PRODUCT_RELATED_PRODUCT_CATEGORY('poign\X\E9e 18mm bois v1',
'poign\X\E9e 18mm bois v1',(#235));
#232=APPLICATION_PROTOCOL_DEFINITION('international standard',
'automotive_design',2009,#233);
#233=APPLICATION_CONTEXT(
'Core Data for Automotive Mechanical Design Process');
#234=PRODUCT_CONTEXT('part definition',#233,'mechanical');
#235=PRODUCT('poign\X\E9e 18mm bois','poign\X\E9e 18mm bois v1',$,(#234));
#236=PRESENTATION_STYLE_ASSIGNMENT((#238));
#237=PRESENTATION_STYLE_ASSIGNMENT((#239));
#238=SURFACE_STYLE_USAGE(.BOTH.,#240);
#239=SURFACE_STYLE_USAGE(.BOTH.,#241);
#240=SURFACE_SIDE_STYLE('',(#242));
#241=SURFACE_SIDE_STYLE('',(#243));
#242=SURFACE_STYLE_FILL_AREA(#244);
#243=SURFACE_STYLE_FILL_AREA(#245);
#244=FILL_AREA_STYLE('Acier - Satin\X\E9',(#246));
#245=FILL_AREA_STYLE('Ch\X\EAne',(#247));
#246=FILL_AREA_STYLE_COLOUR('Acier - Satin\X\E9',#248);
#247=FILL_AREA_STYLE_COLOUR('Ch\X\EAne',#249);
#248=COLOUR_RGB('Acier - Satin\X\E9',0.627450980392157,0.627450980392157,
0.627450980392157);
#249=COLOUR_RGB('Ch\X\EAne',0.,0.,0.);
ENDSEC;
END-ISO-10303-21;
