ISO-10303-21;
HEADER;
FILE_DESCRIPTION (( 'STEP AP214' ),
    '1' );
FILE_NAME ('Bac bas.STEP',
    '2020-10-09T08:45:58',
    ( '' ),
    ( '' ),
    'SwSTEP 2.0',
    'SolidWorks 2019',
    '' );
FILE_SCHEMA (( 'AUTOMOTIVE_DESIGN' ));
ENDSEC;

DATA;
#1 = PLANE ( 'NONE',  #158 ) ;
#2 = EDGE_LOOP ( 'NONE', ( #264, #214, #185, #33 ) ) ;
#3 = LINE ( 'NONE', #238, #243 ) ;
#4 = CARTESIAN_POINT ( 'NONE',  ( 62.00000000000000000, 14.99999999999997691, -243.0000000000000000 ) ) ;
#5 = CARTESIAN_POINT ( 'NONE',  ( -63.00000000000000000, 14.99999999999997691, -242.0000000000000000 ) ) ;
#6 = EDGE_CURVE ( 'NONE', #256, #267, #312, .T. ) ;
#7 = DIRECTION ( 'NONE',  ( -1.000000000000000000, 0.0000000000000000000, 0.0000000000000000000 ) ) ;
#8 = DIRECTION ( 'NONE',  ( 0.0000000000000000000, 0.0000000000000000000, 1.000000000000000000 ) ) ;
#9 = VECTOR ( 'NONE', #252, 1000.000000000000000 ) ;
#10 = EDGE_CURVE ( 'NONE', #59, #175, #333, .T. ) ;
#11 = DIRECTION ( 'NONE',  ( 0.0000000000000000000, 0.0000000000000000000, 1.000000000000000000 ) ) ;
#12 = ADVANCED_FACE ( 'NONE', ( #109, #13 ), #254, .T. ) ;
#13 = FACE_OUTER_BOUND ( 'NONE', #48, .T. ) ;
#14 = DIRECTION ( 'NONE',  ( -1.000000000000000000, -0.0000000000000000000, -0.0000000000000000000 ) ) ;
#15 = EDGE_CURVE ( 'NONE', #227, #212, #224, .T. ) ;
#16 = LINE ( 'NONE', #150, #186 ) ;
#17 = CARTESIAN_POINT ( 'NONE',  ( -62.00000000000000000, 14.99999999999997691, -243.0000000000000000 ) ) ;
#18 = PRESENTATION_LAYER_ASSIGNMENT (  '', '', ( #108 ) ) ;
#19 = DIRECTION ( 'NONE',  ( -1.000000000000000000, 1.294047754256892341E-16, 0.0000000000000000000 ) ) ;
#20 = EDGE_CURVE ( 'NONE', #253, #35, #121, .T. ) ;
#21 = FILL_AREA_STYLE_COLOUR ( '', #202 ) ;
#22 = ORIENTED_EDGE ( 'NONE', *, *, #149, .F. ) ;
#23 =( NAMED_UNIT ( * ) SI_UNIT ( $, .STERADIAN. ) SOLID_ANGLE_UNIT ( ) );
#24 = PLANE ( 'NONE',  #225 ) ;
#25 = EDGE_LOOP ( 'NONE', ( #241, #296, #42, #180 ) ) ;
#26 = PLANE ( 'NONE',  #66 ) ;
#27 = VECTOR ( 'NONE', #198, 1000.000000000000000 ) ;
#28 = EDGE_LOOP ( 'NONE', ( #334, #172, #94, #302 ) ) ;
#29 = CARTESIAN_POINT ( 'NONE',  ( -9.028864099611931908E-16, 0.0000000000000000000, 243.0000000000000000 ) ) ;
#30 = PRODUCT_DEFINITION ( 'UNKNOWN', '', #39, #305 ) ;
#31 = ORIENTED_EDGE ( 'NONE', *, *, #10, .T. ) ;
#32 = LINE ( 'NONE', #189, #207 ) ;
#33 = ORIENTED_EDGE ( 'NONE', *, *, #142, .T. ) ;
#34 = DIRECTION ( 'NONE',  ( 0.0000000000000000000, 0.0000000000000000000, 1.000000000000000000 ) ) ;
#35 = VERTEX_POINT ( 'NONE', #284 ) ;
#36 = CARTESIAN_POINT ( 'NONE',  ( -63.00000000000000000, -2.314582450388497456E-14, -243.0000000000000000 ) ) ;
#37 = CARTESIAN_POINT ( 'NONE',  ( -63.00000000000000000, 14.99999999999997691, -243.0000000000000000 ) ) ;
#38 = VECTOR ( 'NONE', #14, 1000.000000000000000 ) ;
#39 = PRODUCT_DEFINITION_FORMATION_WITH_SPECIFIED_SOURCE ( 'ANY', '', #231, .NOT_KNOWN. ) ;
#40 =( LENGTH_UNIT ( ) NAMED_UNIT ( * ) SI_UNIT ( .MILLI., .METRE. ) );
#41 = PRESENTATION_STYLE_ASSIGNMENT (( #330 ) ) ;
#42 = ORIENTED_EDGE ( 'NONE', *, *, #45, .F. ) ;
#43 = CARTESIAN_POINT ( 'NONE',  ( -62.00000000000000000, 14.99999999999997691, 242.0000000000000000 ) ) ;
#44 = ORIENTED_EDGE ( 'NONE', *, *, #45, .T. ) ;
#45 = EDGE_CURVE ( 'NONE', #342, #86, #323, .T. ) ;
#46 = APPLICATION_CONTEXT ( 'automotive_design' ) ;
#47 = VECTOR ( 'NONE', #8, 1000.000000000000000 ) ;
#48 = EDGE_LOOP ( 'NONE', ( #31, #22, #103, #344 ) ) ;
#49 = CARTESIAN_POINT ( 'NONE',  ( -9.028864099611931908E-16, 0.0000000000000000000, -243.0000000000000000 ) ) ;
#50 = CARTESIAN_POINT ( 'NONE',  ( 63.00000000000000000, 14.99999999999997691, 243.0000000000000000 ) ) ;
#51 = ADVANCED_FACE ( 'NONE', ( #273 ), #111, .T. ) ;
#52 = VECTOR ( 'NONE', #110, 1000.000000000000000 ) ;
#53 = DIRECTION ( 'NONE',  ( 0.0000000000000000000, 0.0000000000000000000, -1.000000000000000000 ) ) ;
#54 = DIRECTION ( 'NONE',  ( 3.673940397442058882E-16, -1.000000000000000000, 0.0000000000000000000 ) ) ;
#55 = DIRECTION ( 'NONE',  ( -4.956352788505173129E-16, 1.000000000000000000, -0.0000000000000000000 ) ) ;
#56 = VECTOR ( 'NONE', #34, 1000.000000000000000 ) ;
#57 = EDGE_LOOP ( 'NONE', ( #44, #233, #136, #67 ) ) ;
#58 = CARTESIAN_POINT ( 'NONE',  ( -62.00000000000000000, 14.99999999999997691, -242.0000000000000000 ) ) ;
#59 = VERTEX_POINT ( 'NONE', #100 ) ;
#60 = DIRECTION ( 'NONE',  ( 0.0000000000000000000, 1.000000000000000000, 0.0000000000000000000 ) ) ;
#61 = ORIENTED_EDGE ( 'NONE', *, *, #329, .F. ) ;
#62 = AXIS2_PLACEMENT_3D ( 'NONE', #310, #199, #70 ) ;
#63 = VERTEX_POINT ( 'NONE', #124 ) ;
#64 = FACE_OUTER_BOUND ( 'NONE', #188, .T. ) ;
#65 = FILL_AREA_STYLE_COLOUR ( '', #331 ) ;
#66 = AXIS2_PLACEMENT_3D ( 'NONE', #4, #130, #322 ) ;
#67 = ORIENTED_EDGE ( 'NONE', *, *, #106, .T. ) ;
#68 = DIRECTION ( 'NONE',  ( 1.000000000000000000, 0.0000000000000000000, 0.0000000000000000000 ) ) ;
#69 = CARTESIAN_POINT ( 'NONE',  ( -62.00000000000000711, 1.000000000000005107, -243.0000000000000000 ) ) ;
#70 = DIRECTION ( 'NONE',  ( 0.0000000000000000000, -0.0000000000000000000, 1.000000000000000000 ) ) ;
#71 = ADVANCED_FACE ( 'NONE', ( #156 ), #203, .F. ) ;
#72 = DIRECTION ( 'NONE',  ( 1.000000000000000000, -4.956352788505173129E-16, 0.0000000000000000000 ) ) ;
#73 = LINE ( 'NONE', #234, #230 ) ;
#74 = VECTOR ( 'NONE', #174, 1000.000000000000000 ) ;
#75 = LINE ( 'NONE', #263, #153 ) ;
#76 = LINE ( 'NONE', #229, #340 ) ;
#77 = LINE ( 'NONE', #184, #194 ) ;
#78 = EDGE_LOOP ( 'NONE', ( #161, #125, #118, #145 ) ) ;
#79 = FACE_OUTER_BOUND ( 'NONE', #2, .T. ) ;
#80 = VECTOR ( 'NONE', #232, 1000.000000000000000 ) ;
#81 = VERTEX_POINT ( 'NONE', #292 ) ;
#82 = EDGE_CURVE ( 'NONE', #157, #63, #16, .T. ) ;
#83 = DIRECTION ( 'NONE',  ( -0.0000000000000000000, -1.000000000000000000, -0.0000000000000000000 ) ) ;
#84 = CARTESIAN_POINT ( 'NONE',  ( 63.00000000000000000, -2.314582450388497456E-14, -243.0000000000000000 ) ) ;
#85 = DIRECTION ( 'NONE',  ( -0.0000000000000000000, 0.0000000000000000000, 1.000000000000000000 ) ) ;
#86 = VERTEX_POINT ( 'NONE', #314 ) ;
#87 = MANIFOLD_SOLID_BREP ( 'Symétrie1', #171 ) ;
#88 = CARTESIAN_POINT ( 'NONE',  ( 0.0000000000000000000, 0.0000000000000000000, 242.0000000000000000 ) ) ;
#89 = ORIENTED_EDGE ( 'NONE', *, *, #301, .T. ) ;
#90 = DIRECTION ( 'NONE',  ( 0.0000000000000000000, 0.0000000000000000000, -1.000000000000000000 ) ) ;
#91 = EDGE_CURVE ( 'NONE', #183, #148, #73, .T. ) ;
#92 = VECTOR ( 'NONE', #60, 1000.000000000000000 ) ;
#93 = ORIENTED_EDGE ( 'NONE', *, *, #20, .T. ) ;
#94 = ORIENTED_EDGE ( 'NONE', *, *, #239, .F. ) ;
#95 = SURFACE_STYLE_FILL_AREA ( #179 ) ;
#96 = STYLED_ITEM ( 'NONE', ( #41 ), #181 ) ;
#97 = DIRECTION ( 'NONE',  ( 1.000000000000000000, 0.0000000000000000000, 0.0000000000000000000 ) ) ;
#98 = APPLICATION_PROTOCOL_DEFINITION ( 'draft international standard', 'automotive_design', 1998, #336 ) ;
#99 = ORIENTED_EDGE ( 'NONE', *, *, #316, .T. ) ;
#100 = CARTESIAN_POINT ( 'NONE',  ( -63.00000000000000000, 14.99999999999997691, -243.0000000000000000 ) ) ;
#101 = ORIENTED_EDGE ( 'NONE', *, *, #321, .T. ) ;
#102 = LINE ( 'NONE', #247, #92 ) ;
#103 = ORIENTED_EDGE ( 'NONE', *, *, #91, .F. ) ;
#104 = CARTESIAN_POINT ( 'NONE',  ( 62.00000000000000000, 14.99999999999997691, -243.0000000000000000 ) ) ;
#105 = ORIENTED_EDGE ( 'NONE', *, *, #301, .F. ) ;
#106 = EDGE_CURVE ( 'NONE', #157, #342, #75, .T. ) ;
#107 = DIRECTION ( 'NONE',  ( -1.000000000000000000, 0.0000000000000000000, 0.0000000000000000000 ) ) ;
#108 = STYLED_ITEM ( 'NONE', ( #123 ), #87 ) ;
#109 = FACE_BOUND ( 'NONE', #309, .T. ) ;
#110 = DIRECTION ( 'NONE',  ( 1.000000000000000000, -3.673940397442059375E-16, 0.0000000000000000000 ) ) ;
#111 = PLANE ( 'NONE',  #327 ) ;
#112 = UNCERTAINTY_MEASURE_WITH_UNIT (LENGTH_MEASURE( 1.000000000000000082E-05 ), #40, 'distance_accuracy_value', 'NONE');
#113 = CARTESIAN_POINT ( 'NONE',  ( 62.00000000000000000, 14.99999999999997691, 242.0000000000000000 ) ) ;
#114 = ORIENTED_EDGE ( 'NONE', *, *, #239, .T. ) ;
#115 =( NAMED_UNIT ( * ) PLANE_ANGLE_UNIT ( ) SI_UNIT ( $, .RADIAN. ) );
#116 = VECTOR ( 'NONE', #134, 1000.000000000000000 ) ;
#117 =( LENGTH_UNIT ( ) NAMED_UNIT ( * ) SI_UNIT ( .MILLI., .METRE. ) );
#118 = ORIENTED_EDGE ( 'NONE', *, *, #226, .F. ) ;
#119 = AXIS2_PLACEMENT_3D ( 'NONE', #36, #7, #11 ) ;
#120 = LINE ( 'NONE', #306, #235 ) ;
#121 = LINE ( 'NONE', #69, #74 ) ;
#122 = DIRECTION ( 'NONE',  ( 0.0000000000000000000, 0.0000000000000000000, 1.000000000000000000 ) ) ;
#123 = PRESENTATION_STYLE_ASSIGNMENT (( #182 ) ) ;
#124 = CARTESIAN_POINT ( 'NONE',  ( -63.00000000000000000, -2.314582450388497456E-14, 243.0000000000000000 ) ) ;
#125 = ORIENTED_EDGE ( 'NONE', *, *, #204, .F. ) ;
#126 = ADVANCED_FACE ( 'NONE', ( #176 ), #24, .T. ) ;
#127 = LINE ( 'NONE', #258, #255 ) ;
#128 = ORIENTED_EDGE ( 'NONE', *, *, #20, .F. ) ;
#129 = VECTOR ( 'NONE', #219, 1000.000000000000000 ) ;
#130 = DIRECTION ( 'NONE',  ( -1.000000000000000000, -4.956352788505173129E-16, 0.0000000000000000000 ) ) ;
#131 = ORIENTED_EDGE ( 'NONE', *, *, #6, .T. ) ;
#132 = PLANE ( 'NONE',  #285 ) ;
#133 = EDGE_CURVE ( 'NONE', #35, #81, #127, .T. ) ;
#134 = DIRECTION ( 'NONE',  ( 4.956352788505173129E-16, -1.000000000000000000, 0.0000000000000000000 ) ) ;
#135 = CARTESIAN_POINT ( 'NONE',  ( 0.0000000000000000000, 0.0000000000000000000, 243.0000000000000000 ) ) ;
#136 = ORIENTED_EDGE ( 'NONE', *, *, #82, .F. ) ;
#137 = ADVANCED_FACE ( 'NONE', ( #154 ), #337, .T. ) ;
#138 = VERTEX_POINT ( 'NONE', #208 ) ;
#139 =( NAMED_UNIT ( * ) SI_UNIT ( $, .STERADIAN. ) SOLID_ANGLE_UNIT ( ) );
#140 = MECHANICAL_DESIGN_GEOMETRIC_PRESENTATION_REPRESENTATION (  '', ( #96 ), #341 ) ;
#141 = LINE ( 'NONE', #43, #279 ) ;
#142 = EDGE_CURVE ( 'NONE', #86, #148, #76, .T. ) ;
#143 = CARTESIAN_POINT ( 'NONE',  ( -62.00000000000000000, 14.99999999999997691, -243.0000000000000000 ) ) ;
#144 = FACE_OUTER_BOUND ( 'NONE', #25, .T. ) ;
#145 = ORIENTED_EDGE ( 'NONE', *, *, #106, .F. ) ;
#146 =( GEOMETRIC_REPRESENTATION_CONTEXT ( 3 ) GLOBAL_UNCERTAINTY_ASSIGNED_CONTEXT ( ( #277 ) ) GLOBAL_UNIT_ASSIGNED_CONTEXT ( ( #287, #201, #205 ) ) REPRESENTATION_CONTEXT ( 'NONE', 'WORKASPACE' ) );
#147 = PRODUCT_CONTEXT ( 'NONE', #46, 'mechanical' ) ;
#148 = VERTEX_POINT ( 'NONE', #50 ) ;
#149 = EDGE_CURVE ( 'NONE', #148, #175, #152, .T. ) ;
#150 = CARTESIAN_POINT ( 'NONE',  ( -63.00000000000000000, -2.314582450388497456E-14, -243.0000000000000000 ) ) ;
#151 = DIRECTION ( 'NONE',  ( 1.000000000000000000, 0.0000000000000000000, 0.0000000000000000000 ) ) ;
#152 = LINE ( 'NONE', #260, #80 ) ;
#153 = VECTOR ( 'NONE', #315, 1000.000000000000000 ) ;
#154 = FACE_OUTER_BOUND ( 'NONE', #246, .T. ) ;
#155 = ORIENTED_EDGE ( 'NONE', *, *, #173, .F. ) ;
#156 = FACE_OUTER_BOUND ( 'NONE', #166, .T. ) ;
#157 = VERTEX_POINT ( 'NONE', #262 ) ;
#158 = AXIS2_PLACEMENT_3D ( 'NONE', #88, #210, #193 ) ;
#159 = ADVANCED_FACE ( 'NONE', ( #326 ), #1, .F. ) ;
#160 = LINE ( 'NONE', #275, #274 ) ;
#161 = ORIENTED_EDGE ( 'NONE', *, *, #283, .F. ) ;
#162 = LINE ( 'NONE', #104, #56 ) ;
#163 = EDGE_CURVE ( 'NONE', #63, #86, #294, .T. ) ;
#164 = ORIENTED_EDGE ( 'NONE', *, *, #272, .T. ) ;
#165 = LINE ( 'NONE', #245, #129 ) ;
#166 = EDGE_LOOP ( 'NONE', ( #168, #61, #299, #131 ) ) ;
#167 = PLANE ( 'NONE',  #119 ) ;
#168 = ORIENTED_EDGE ( 'NONE', *, *, #321, .F. ) ;
#169 = FILL_AREA_STYLE ('',( #65 ) ) ;
#170 = UNCERTAINTY_MEASURE_WITH_UNIT (LENGTH_MEASURE( 1.000000000000000082E-05 ), #117, 'distance_accuracy_value', 'NONE');
#171 = CLOSED_SHELL ( 'NONE', ( #137, #51, #191, #126, #293, #12, #319, #211, #218, #159, #71 ) ) ;
#172 = ORIENTED_EDGE ( 'NONE', *, *, #15, .F. ) ;
#173 = EDGE_CURVE ( 'NONE', #256, #227, #162, .T. ) ;
#174 = DIRECTION ( 'NONE',  ( 0.0000000000000000000, 0.0000000000000000000, 1.000000000000000000 ) ) ;
#175 = VERTEX_POINT ( 'NONE', #265 ) ;
#176 = FACE_OUTER_BOUND ( 'NONE', #57, .T. ) ;
#177 = DIRECTION ( 'NONE',  ( 4.956352788505173129E-16, 1.000000000000000000, 0.0000000000000000000 ) ) ;
#178 = DIRECTION ( 'NONE',  ( 1.000000000000000000, 3.673940397442058882E-16, 0.0000000000000000000 ) ) ;
#179 = FILL_AREA_STYLE ('',( #21 ) ) ;
#180 = ORIENTED_EDGE ( 'NONE', *, *, #226, .T. ) ;
#181 = ADVANCED_BREP_SHAPE_REPRESENTATION ( 'Bac bas', ( #87, #244 ), #250 ) ;
#182 = SURFACE_STYLE_USAGE ( .BOTH. , #313 ) ;
#183 = VERTEX_POINT ( 'NONE', #304 ) ;
#184 = CARTESIAN_POINT ( 'NONE',  ( 62.00000000000000000, 14.99999999999997691, 242.0000000000000000 ) ) ;
#185 = ORIENTED_EDGE ( 'NONE', *, *, #163, .T. ) ;
#186 = VECTOR ( 'NONE', #122, 1000.000000000000000 ) ;
#187 = LINE ( 'NONE', #297, #116 ) ;
#188 = EDGE_LOOP ( 'NONE', ( #155, #164, #192, #114 ) ) ;
#189 = CARTESIAN_POINT ( 'NONE',  ( -63.00000000000000000, -2.314582450388497456E-14, -243.0000000000000000 ) ) ;
#190 = DIRECTION ( 'NONE',  ( 0.0000000000000000000, 0.0000000000000000000, 1.000000000000000000 ) ) ;
#191 = ADVANCED_FACE ( 'NONE', ( #64 ), #26, .T. ) ;
#192 = ORIENTED_EDGE ( 'NONE', *, *, #291, .T. ) ;
#193 = DIRECTION ( 'NONE',  ( 1.000000000000000000, 0.0000000000000000000, 0.0000000000000000000 ) ) ;
#194 = VECTOR ( 'NONE', #55, 1000.000000000000000 ) ;
#195 = ORIENTED_EDGE ( 'NONE', *, *, #251, .F. ) ;
#196 = CARTESIAN_POINT ( 'NONE',  ( 63.00000000000000000, -2.314582450388497456E-14, -243.0000000000000000 ) ) ;
#197 = PLANE ( 'NONE',  #237 ) ;
#198 = DIRECTION ( 'NONE',  ( -1.000000000000000000, -0.0000000000000000000, 0.0000000000000000000 ) ) ;
#199 = DIRECTION ( 'NONE',  ( 0.0000000000000000000, 1.000000000000000000, 0.0000000000000000000 ) ) ;
#200 = PRODUCT_RELATED_PRODUCT_CATEGORY ( 'part', '', ( #231 ) ) ;
#201 =( NAMED_UNIT ( * ) PLANE_ANGLE_UNIT ( ) SI_UNIT ( $, .RADIAN. ) );
#202 = COLOUR_RGB ( '',0.7921568627450980005, 0.8196078431372548767, 0.9333333333333333481 ) ;
#203 = PLANE ( 'NONE',  #303 ) ;
#204 = EDGE_CURVE ( 'NONE', #183, #59, #3, .T. ) ;
#205 =( NAMED_UNIT ( * ) SI_UNIT ( $, .STERADIAN. ) SOLID_ANGLE_UNIT ( ) );
#206 = ORIENTED_EDGE ( 'NONE', *, *, #283, .T. ) ;
#207 = VECTOR ( 'NONE', #83, 1000.000000000000000 ) ;
#208 = CARTESIAN_POINT ( 'NONE',  ( 62.00000000000000711, 1.000000000000005107, -242.0000000000000000 ) ) ;
#209 = ORIENTED_EDGE ( 'NONE', *, *, #15, .T. ) ;
#210 = DIRECTION ( 'NONE',  ( -0.0000000000000000000, 0.0000000000000000000, 1.000000000000000000 ) ) ;
#211 = ADVANCED_FACE ( 'NONE', ( #317 ), #216, .F. ) ;
#212 = VERTEX_POINT ( 'NONE', #343 ) ;
#213 = CARTESIAN_POINT ( 'NONE',  ( 0.0000000000000000000, 0.0000000000000000000, -243.0000000000000000 ) ) ;
#214 = ORIENTED_EDGE ( 'NONE', *, *, #251, .T. ) ;
#215 = MECHANICAL_DESIGN_GEOMETRIC_PRESENTATION_REPRESENTATION (  '', ( #108 ), #146 ) ;
#216 = PLANE ( 'NONE',  #266 ) ;
#217 = CARTESIAN_POINT ( 'NONE',  ( -63.00000000000000000, 14.99999999999997691, 242.0000000000000000 ) ) ;
#218 = ADVANCED_FACE ( 'NONE', ( #79 ), #132, .T. ) ;
#219 = DIRECTION ( 'NONE',  ( 0.0000000000000000000, 0.0000000000000000000, 1.000000000000000000 ) ) ;
#220 = CARTESIAN_POINT ( 'NONE',  ( -62.00000000000000711, 1.000000000000005107, -243.0000000000000000 ) ) ;
#221 = ORIENTED_EDGE ( 'NONE', *, *, #82, .T. ) ;
#222 = LINE ( 'NONE', #143, #47 ) ;
#223 = SURFACE_STYLE_FILL_AREA ( #169 ) ;
#224 = LINE ( 'NONE', #217, #38 ) ;
#225 = AXIS2_PLACEMENT_3D ( 'NONE', #49, #54, #178 ) ;
#226 = EDGE_CURVE ( 'NONE', #342, #183, #102, .T. ) ;
#227 = VERTEX_POINT ( 'NONE', #113 ) ;
#228 = DIRECTION ( 'NONE',  ( 0.0000000000000000000, 0.0000000000000000000, 1.000000000000000000 ) ) ;
#229 = CARTESIAN_POINT ( 'NONE',  ( 63.00000000000000000, -2.314582450388497456E-14, 243.0000000000000000 ) ) ;
#230 = VECTOR ( 'NONE', #228, 1000.000000000000000 ) ;
#231 = PRODUCT ( 'Bac bas', 'Bac bas', '', ( #147 ) ) ;
#232 = DIRECTION ( 'NONE',  ( -1.000000000000000000, 0.0000000000000000000, 0.0000000000000000000 ) ) ;
#233 = ORIENTED_EDGE ( 'NONE', *, *, #163, .F. ) ;
#234 = CARTESIAN_POINT ( 'NONE',  ( 63.00000000000000000, 14.99999999999997691, -243.0000000000000000 ) ) ;
#235 = VECTOR ( 'NONE', #281, 1000.000000000000000 ) ;
#236 = ORIENTED_EDGE ( 'NONE', *, *, #329, .T. ) ;
#237 = AXIS2_PLACEMENT_3D ( 'NONE', #311, #68, #90 ) ;
#238 = CARTESIAN_POINT ( 'NONE',  ( 63.00000000000000000, 14.99999999999997691, -243.0000000000000000 ) ) ;
#239 = EDGE_CURVE ( 'NONE', #81, #227, #77, .T. ) ;
#240 = DIRECTION ( 'NONE',  ( -0.0000000000000000000, -1.000000000000000000, -0.0000000000000000000 ) ) ;
#241 = ORIENTED_EDGE ( 'NONE', *, *, #91, .T. ) ;
#242 = CARTESIAN_POINT ( 'NONE',  ( -62.00000000000000711, 1.000000000000005107, -242.0000000000000000 ) ) ;
#243 = VECTOR ( 'NONE', #107, 1000.000000000000000 ) ;
#244 = AXIS2_PLACEMENT_3D ( 'NONE', #259, #335, #151 ) ;
#245 = CARTESIAN_POINT ( 'NONE',  ( 62.00000000000000711, 1.000000000000005107, -243.0000000000000000 ) ) ;
#246 = EDGE_LOOP ( 'NONE', ( #128, #101, #89, #99 ) ) ;
#247 = CARTESIAN_POINT ( 'NONE',  ( 63.00000000000000000, -2.314582450388497456E-14, -243.0000000000000000 ) ) ;
#248 = EDGE_LOOP ( 'NONE', ( #270, #236, #93, #271 ) ) ;
#249 = CARTESIAN_POINT ( 'NONE',  ( -62.00000000000000000, 14.99999999999997691, -242.0000000000000000 ) ) ;
#250 =( GEOMETRIC_REPRESENTATION_CONTEXT ( 3 ) GLOBAL_UNCERTAINTY_ASSIGNED_CONTEXT ( ( #170 ) ) GLOBAL_UNIT_ASSIGNED_CONTEXT ( ( #117, #115, #139 ) ) REPRESENTATION_CONTEXT ( 'NONE', 'WORKASPACE' ) );
#251 = EDGE_CURVE ( 'NONE', #175, #63, #160, .T. ) ;
#252 = DIRECTION ( 'NONE',  ( 4.956352788505173129E-16, 1.000000000000000000, 0.0000000000000000000 ) ) ;
#253 = VERTEX_POINT ( 'NONE', #242 ) ;
#254 = PLANE ( 'NONE',  #62 ) ;
#255 = VECTOR ( 'NONE', #289, 1000.000000000000000 ) ;
#256 = VERTEX_POINT ( 'NONE', #269 ) ;
#257 = SHAPE_DEFINITION_REPRESENTATION ( #268, #181 ) ;
#258 = CARTESIAN_POINT ( 'NONE',  ( -62.00000000000000711, 1.000000000000005107, 242.0000000000000000 ) ) ;
#259 = CARTESIAN_POINT ( 'NONE',  ( 0.0000000000000000000, 0.0000000000000000000, 0.0000000000000000000 ) ) ;
#260 = CARTESIAN_POINT ( 'NONE',  ( 63.00000000000000000, 14.99999999999997691, 243.0000000000000000 ) ) ;
#261 = VECTOR ( 'NONE', #190, 1000.000000000000000 ) ;
#262 = CARTESIAN_POINT ( 'NONE',  ( -63.00000000000000000, -2.314582450388497456E-14, -243.0000000000000000 ) ) ;
#263 = CARTESIAN_POINT ( 'NONE',  ( -9.028864099611931908E-16, 0.0000000000000000000, -243.0000000000000000 ) ) ;
#264 = ORIENTED_EDGE ( 'NONE', *, *, #149, .T. ) ;
#265 = CARTESIAN_POINT ( 'NONE',  ( -63.00000000000000000, 14.99999999999997691, 243.0000000000000000 ) ) ;
#266 = AXIS2_PLACEMENT_3D ( 'NONE', #213, #85, #320 ) ;
#267 = VERTEX_POINT ( 'NONE', #58 ) ;
#268 = PRODUCT_DEFINITION_SHAPE ( 'NONE', 'NONE',  #30 ) ;
#269 = CARTESIAN_POINT ( 'NONE',  ( 62.00000000000000000, 14.99999999999997691, -242.0000000000000000 ) ) ;
#270 = ORIENTED_EDGE ( 'NONE', *, *, #291, .F. ) ;
#271 = ORIENTED_EDGE ( 'NONE', *, *, #133, .T. ) ;
#272 = EDGE_CURVE ( 'NONE', #256, #138, #187, .T. ) ;
#273 = FACE_OUTER_BOUND ( 'NONE', #248, .T. ) ;
#274 = VECTOR ( 'NONE', #240, 1000.000000000000000 ) ;
#275 = CARTESIAN_POINT ( 'NONE',  ( -63.00000000000000000, -2.314582450388497456E-14, 243.0000000000000000 ) ) ;
#276 = EDGE_LOOP ( 'NONE', ( #221, #195, #286, #206 ) ) ;
#277 = UNCERTAINTY_MEASURE_WITH_UNIT (LENGTH_MEASURE( 1.000000000000000082E-05 ), #287, 'distance_accuracy_value', 'NONE');
#278 = DIRECTION ( 'NONE',  ( -4.956352788505173129E-16, -1.000000000000000000, 0.0000000000000000000 ) ) ;
#279 = VECTOR ( 'NONE', #278, 1000.000000000000000 ) ;
#280 = SURFACE_SIDE_STYLE ('',( #223 ) ) ;
#281 = DIRECTION ( 'NONE',  ( -1.000000000000000000, 1.294047754256892341E-16, 0.0000000000000000000 ) ) ;
#282 = DIRECTION ( 'NONE',  ( 0.0000000000000000000, 0.0000000000000000000, 1.000000000000000000 ) ) ;
#283 = EDGE_CURVE ( 'NONE', #59, #157, #32, .T. ) ;
#284 = CARTESIAN_POINT ( 'NONE',  ( -62.00000000000000711, 1.000000000000005107, 242.0000000000000000 ) ) ;
#285 = AXIS2_PLACEMENT_3D ( 'NONE', #135, #300, #298 ) ;
#286 = ORIENTED_EDGE ( 'NONE', *, *, #10, .F. ) ;
#287 =( LENGTH_UNIT ( ) NAMED_UNIT ( * ) SI_UNIT ( .MILLI., .METRE. ) );
#288 = DIRECTION ( 'NONE',  ( 0.0000000000000000000, 1.000000000000000000, 0.0000000000000000000 ) ) ;
#289 = DIRECTION ( 'NONE',  ( 1.000000000000000000, -1.294047754256892341E-16, 0.0000000000000000000 ) ) ;
#290 = VECTOR ( 'NONE', #282, 1000.000000000000000 ) ;
#291 = EDGE_CURVE ( 'NONE', #138, #81, #165, .T. ) ;
#292 = CARTESIAN_POINT ( 'NONE',  ( 62.00000000000000711, 1.000000000000004441, 242.0000000000000000 ) ) ;
#293 = ADVANCED_FACE ( 'NONE', ( #324 ), #167, .T. ) ;
#294 = LINE ( 'NONE', #29, #52 ) ;
#295 = PRESENTATION_LAYER_ASSIGNMENT (  '', '', ( #96 ) ) ;
#296 = ORIENTED_EDGE ( 'NONE', *, *, #142, .F. ) ;
#297 = CARTESIAN_POINT ( 'NONE',  ( 62.00000000000000000, 14.99999999999997691, -242.0000000000000000 ) ) ;
#298 = DIRECTION ( 'NONE',  ( 1.000000000000000000, 0.0000000000000000000, 0.0000000000000000000 ) ) ;
#299 = ORIENTED_EDGE ( 'NONE', *, *, #272, .F. ) ;
#300 = DIRECTION ( 'NONE',  ( -0.0000000000000000000, 0.0000000000000000000, 1.000000000000000000 ) ) ;
#301 = EDGE_CURVE ( 'NONE', #267, #212, #222, .T. ) ;
#302 = ORIENTED_EDGE ( 'NONE', *, *, #133, .F. ) ;
#303 = AXIS2_PLACEMENT_3D ( 'NONE', #338, #53, #97 ) ;
#304 = CARTESIAN_POINT ( 'NONE',  ( 63.00000000000000000, 14.99999999999997691, -243.0000000000000000 ) ) ;
#305 = PRODUCT_DEFINITION_CONTEXT ( 'detailed design', #336, 'design' ) ;
#306 = CARTESIAN_POINT ( 'NONE',  ( -62.00000000000000711, 1.000000000000005107, -242.0000000000000000 ) ) ;
#307 = AXIS2_PLACEMENT_3D ( 'NONE', #17, #72, #177 ) ;
#308 = LINE ( 'NONE', #249, #9 ) ;
#309 = EDGE_LOOP ( 'NONE', ( #105, #318, #339, #209 ) ) ;
#310 = CARTESIAN_POINT ( 'NONE',  ( -63.00000000000000000, 14.99999999999997691, -243.0000000000000000 ) ) ;
#311 = CARTESIAN_POINT ( 'NONE',  ( 63.00000000000000000, -2.314582450388497456E-14, -243.0000000000000000 ) ) ;
#312 = LINE ( 'NONE', #5, #27 ) ;
#313 = SURFACE_SIDE_STYLE ('',( #95 ) ) ;
#314 = CARTESIAN_POINT ( 'NONE',  ( 63.00000000000000000, -2.314582450388497456E-14, 243.0000000000000000 ) ) ;
#315 = DIRECTION ( 'NONE',  ( 1.000000000000000000, -3.673940397442059375E-16, 0.0000000000000000000 ) ) ;
#316 = EDGE_CURVE ( 'NONE', #212, #35, #141, .T. ) ;
#317 = FACE_OUTER_BOUND ( 'NONE', #78, .T. ) ;
#318 = ORIENTED_EDGE ( 'NONE', *, *, #6, .F. ) ;
#319 = ADVANCED_FACE ( 'NONE', ( #144 ), #197, .T. ) ;
#320 = DIRECTION ( 'NONE',  ( 1.000000000000000000, 0.0000000000000000000, 0.0000000000000000000 ) ) ;
#321 = EDGE_CURVE ( 'NONE', #253, #267, #308, .T. ) ;
#322 = DIRECTION ( 'NONE',  ( 4.956352788505173129E-16, -1.000000000000000000, 0.0000000000000000000 ) ) ;
#323 = LINE ( 'NONE', #84, #261 ) ;
#324 = FACE_OUTER_BOUND ( 'NONE', #276, .T. ) ;
#325 = DIRECTION ( 'NONE',  ( 1.294047754256892341E-16, 1.000000000000000000, -0.0000000000000000000 ) ) ;
#326 = FACE_OUTER_BOUND ( 'NONE', #28, .T. ) ;
#327 = AXIS2_PLACEMENT_3D ( 'NONE', #220, #325, #19 ) ;
#328 = APPLICATION_PROTOCOL_DEFINITION ( 'draft international standard', 'automotive_design', 1998, #46 ) ;
#329 = EDGE_CURVE ( 'NONE', #138, #253, #120, .T. ) ;
#330 = SURFACE_STYLE_USAGE ( .BOTH. , #280 ) ;
#331 = COLOUR_RGB ( '',0.7921568627450980005, 0.8196078431372548767, 0.9333333333333333481 ) ;
#332 =( NAMED_UNIT ( * ) PLANE_ANGLE_UNIT ( ) SI_UNIT ( $, .RADIAN. ) );
#333 = LINE ( 'NONE', #37, #290 ) ;
#334 = ORIENTED_EDGE ( 'NONE', *, *, #316, .F. ) ;
#335 = DIRECTION ( 'NONE',  ( 0.0000000000000000000, 0.0000000000000000000, 1.000000000000000000 ) ) ;
#336 = APPLICATION_CONTEXT ( 'automotive_design' ) ;
#337 = PLANE ( 'NONE',  #307 ) ;
#338 = CARTESIAN_POINT ( 'NONE',  ( 0.0000000000000000000, 0.0000000000000000000, -242.0000000000000000 ) ) ;
#339 = ORIENTED_EDGE ( 'NONE', *, *, #173, .T. ) ;
#340 = VECTOR ( 'NONE', #288, 1000.000000000000000 ) ;
#341 =( GEOMETRIC_REPRESENTATION_CONTEXT ( 3 ) GLOBAL_UNCERTAINTY_ASSIGNED_CONTEXT ( ( #112 ) ) GLOBAL_UNIT_ASSIGNED_CONTEXT ( ( #40, #332, #23 ) ) REPRESENTATION_CONTEXT ( 'NONE', 'WORKASPACE' ) );
#342 = VERTEX_POINT ( 'NONE', #196 ) ;
#343 = CARTESIAN_POINT ( 'NONE',  ( -62.00000000000000000, 14.99999999999997691, 242.0000000000000000 ) ) ;
#344 = ORIENTED_EDGE ( 'NONE', *, *, #204, .T. ) ;
ENDSEC;
END-ISO-10303-21;
