ISO-10303-21;
HEADER;
/* Generated by software containing ST-Developer
 * from STEP Tools, Inc. (www.steptools.com) 
 */

FILE_DESCRIPTION(
/* description */ (''),
/* implementation_level */ '2;1');

FILE_NAME(
/* name */ 
'C:/Users/ced0w/OneDrive/Documents/Saint-Luc/DI 5eme/Stage/Wireless/Co
mmandes/END CUP PLASTIC.step',
/* time_stamp */ '2020-10-12T11:41:22+02:00',
/* author */ (''),
/* organization */ (''),
/* preprocessor_version */ 'ST-DEVELOPER v18.1',
/* originating_system */ 'Autodesk Translation Framework v9.3.0.1241',
/* authorisation */ '');

FILE_SCHEMA (('AUTOMOTIVE_DESIGN { 1 0 10303 214 3 1 1 }'));
ENDSEC;

DATA;
#10=MECHANICAL_DESIGN_GEOMETRIC_PRESENTATION_REPRESENTATION('',(#13),#282);
#11=SHAPE_REPRESENTATION_RELATIONSHIP('SRR','None',#288,#12);
#12=ADVANCED_BREP_SHAPE_REPRESENTATION('',(#14),#281);
#13=STYLED_ITEM('',(#299),#14);
#14=MANIFOLD_SOLID_BREP('END CUP',#128);
#15=FACE_BOUND('',#41,.T.);
#16=FACE_BOUND('',#44,.T.);
#17=LINE('',#230,#20);
#18=LINE('',#238,#21);
#19=LINE('',#246,#22);
#20=VECTOR('',#163,9.325);
#21=VECTOR('',#174,9.725);
#22=VECTOR('',#183,10.125);
#23=CYLINDRICAL_SURFACE('',#135,9.325);
#24=CYLINDRICAL_SURFACE('',#139,9.725);
#25=CYLINDRICAL_SURFACE('',#143,10.125);
#26=(
BOUNDED_SURFACE()
B_SPLINE_SURFACE(2,2,((#196,#197,#198,#199,#200,#201,#202,#203,#204),(#205,
#206,#207,#208,#209,#210,#211,#212,#213),(#214,#215,#216,#217,#218,#219,
#220,#221,#222)),.UNSPECIFIED.,.F.,.T.,.F.)
B_SPLINE_SURFACE_WITH_KNOTS((3,3),(3,2,2,2,3),(0.0839625709016721,1.5707963267949),
(-3.14159265358979,-1.5707963267949,0.,1.5707963267949,3.14159265358979),
 .UNSPECIFIED.)
GEOMETRIC_REPRESENTATION_ITEM()
RATIONAL_B_SPLINE_SURFACE(((1.,0.707106781186548,1.,0.707106781186548,1.,
0.707106781186548,1.,0.707106781186548,1.),(0.736160292891525,0.520543935143873,
0.736160292891525,0.520543935143873,0.736160292891525,0.520543935143873,
0.736160292891525,0.520543935143873,0.736160292891525),(1.,0.707106781186548,
1.,0.707106781186548,1.,0.707106781186548,1.,0.707106781186548,1.)))
REPRESENTATION_ITEM('')
SURFACE()
);
#27=(
BOUNDED_SURFACE()
B_SPLINE_SURFACE(2,2,((#248,#249,#250,#251,#252,#253,#254,#255,#256),(#257,
#258,#259,#260,#261,#262,#263,#264,#265),(#266,#267,#268,#269,#270,#271,
#272,#273,#274)),.UNSPECIFIED.,.F.,.T.,.F.)
B_SPLINE_SURFACE_WITH_KNOTS((3,3),(3,2,2,2,3),(0.0794481986196827,1.5707963267949),
(-3.14159265358979,-1.5707963267949,0.,1.5707963267949,3.14159265358979),
 .UNSPECIFIED.)
GEOMETRIC_REPRESENTATION_ITEM()
RATIONAL_B_SPLINE_SURFACE(((1.,0.707106781186548,1.,0.707106781186548,1.,
0.707106781186548,1.,0.707106781186548,1.),(0.734630738967965,0.519462377192333,
0.734630738967965,0.519462377192333,0.734630738967965,0.519462377192333,
0.734630738967965,0.519462377192333,0.734630738967965),(1.,0.707106781186548,
1.,0.707106781186548,1.,0.707106781186548,1.,0.707106781186548,1.)))
REPRESENTATION_ITEM('')
SURFACE()
);
#28=FACE_OUTER_BOUND('',#37,.T.);
#29=FACE_OUTER_BOUND('',#38,.T.);
#30=FACE_OUTER_BOUND('',#39,.T.);
#31=FACE_OUTER_BOUND('',#40,.T.);
#32=FACE_OUTER_BOUND('',#42,.T.);
#33=FACE_OUTER_BOUND('',#43,.T.);
#34=FACE_OUTER_BOUND('',#45,.T.);
#35=FACE_OUTER_BOUND('',#46,.T.);
#36=FACE_OUTER_BOUND('',#47,.T.);
#37=EDGE_LOOP('',(#85));
#38=EDGE_LOOP('',(#86,#87,#88,#89,#90));
#39=EDGE_LOOP('',(#91,#92,#93,#94,#95));
#40=EDGE_LOOP('',(#96));
#41=EDGE_LOOP('',(#97));
#42=EDGE_LOOP('',(#98,#99,#100,#101));
#43=EDGE_LOOP('',(#102));
#44=EDGE_LOOP('',(#103));
#45=EDGE_LOOP('',(#104,#105,#106,#107,#108));
#46=EDGE_LOOP('',(#109,#110,#111,#112,#113));
#47=EDGE_LOOP('',(#114));
#48=CIRCLE('',#131,2.5);
#49=CIRCLE('',#132,6.84912801484229);
#50=CIRCLE('',#133,9.325);
#51=CIRCLE('',#134,9.325);
#52=CIRCLE('',#136,9.325);
#53=CIRCLE('',#138,9.725);
#54=CIRCLE('',#140,9.725);
#55=CIRCLE('',#142,10.125);
#56=CIRCLE('',#144,10.125);
#57=CIRCLE('',#145,10.125);
#58=CIRCLE('',#146,2.5);
#59=CIRCLE('',#147,7.64912801484231);
#60=VERTEX_POINT('',#194);
#61=VERTEX_POINT('',#223);
#62=VERTEX_POINT('',#225);
#63=VERTEX_POINT('',#229);
#64=VERTEX_POINT('',#233);
#65=VERTEX_POINT('',#236);
#66=VERTEX_POINT('',#240);
#67=VERTEX_POINT('',#243);
#68=VERTEX_POINT('',#244);
#69=VERTEX_POINT('',#275);
#70=EDGE_CURVE('',#60,#60,#48,.T.);
#71=EDGE_CURVE('',#60,#61,#49,.T.);
#72=EDGE_CURVE('',#62,#61,#50,.T.);
#73=EDGE_CURVE('',#61,#62,#51,.T.);
#74=EDGE_CURVE('',#62,#63,#17,.T.);
#75=EDGE_CURVE('',#63,#63,#52,.T.);
#76=EDGE_CURVE('',#64,#64,#53,.T.);
#77=EDGE_CURVE('',#65,#65,#54,.T.);
#78=EDGE_CURVE('',#65,#64,#18,.T.);
#79=EDGE_CURVE('',#66,#66,#55,.T.);
#80=EDGE_CURVE('',#67,#68,#56,.T.);
#81=EDGE_CURVE('',#67,#66,#19,.T.);
#82=EDGE_CURVE('',#68,#67,#57,.T.);
#83=EDGE_CURVE('',#69,#69,#58,.T.);
#84=EDGE_CURVE('',#69,#68,#59,.T.);
#85=ORIENTED_EDGE('',*,*,#70,.F.);
#86=ORIENTED_EDGE('',*,*,#70,.T.);
#87=ORIENTED_EDGE('',*,*,#71,.T.);
#88=ORIENTED_EDGE('',*,*,#72,.F.);
#89=ORIENTED_EDGE('',*,*,#73,.F.);
#90=ORIENTED_EDGE('',*,*,#71,.F.);
#91=ORIENTED_EDGE('',*,*,#72,.T.);
#92=ORIENTED_EDGE('',*,*,#73,.T.);
#93=ORIENTED_EDGE('',*,*,#74,.T.);
#94=ORIENTED_EDGE('',*,*,#75,.F.);
#95=ORIENTED_EDGE('',*,*,#74,.F.);
#96=ORIENTED_EDGE('',*,*,#76,.F.);
#97=ORIENTED_EDGE('',*,*,#75,.T.);
#98=ORIENTED_EDGE('',*,*,#77,.F.);
#99=ORIENTED_EDGE('',*,*,#78,.T.);
#100=ORIENTED_EDGE('',*,*,#76,.T.);
#101=ORIENTED_EDGE('',*,*,#78,.F.);
#102=ORIENTED_EDGE('',*,*,#79,.F.);
#103=ORIENTED_EDGE('',*,*,#77,.T.);
#104=ORIENTED_EDGE('',*,*,#80,.F.);
#105=ORIENTED_EDGE('',*,*,#81,.T.);
#106=ORIENTED_EDGE('',*,*,#79,.T.);
#107=ORIENTED_EDGE('',*,*,#81,.F.);
#108=ORIENTED_EDGE('',*,*,#82,.F.);
#109=ORIENTED_EDGE('',*,*,#83,.F.);
#110=ORIENTED_EDGE('',*,*,#84,.T.);
#111=ORIENTED_EDGE('',*,*,#82,.T.);
#112=ORIENTED_EDGE('',*,*,#80,.T.);
#113=ORIENTED_EDGE('',*,*,#84,.F.);
#114=ORIENTED_EDGE('',*,*,#83,.T.);
#115=PLANE('',#130);
#116=PLANE('',#137);
#117=PLANE('',#141);
#118=PLANE('',#148);
#119=ADVANCED_FACE('',(#28),#115,.T.);
#120=ADVANCED_FACE('',(#29),#26,.T.);
#121=ADVANCED_FACE('',(#30),#23,.F.);
#122=ADVANCED_FACE('',(#31,#15),#116,.T.);
#123=ADVANCED_FACE('',(#32),#24,.T.);
#124=ADVANCED_FACE('',(#33,#16),#117,.T.);
#125=ADVANCED_FACE('',(#34),#25,.T.);
#126=ADVANCED_FACE('',(#35),#27,.F.);
#127=ADVANCED_FACE('',(#36),#118,.T.);
#128=CLOSED_SHELL('',(#119,#120,#121,#122,#123,#124,#125,#126,#127));
#129=AXIS2_PLACEMENT_3D('placement',#192,#149,#150);
#130=AXIS2_PLACEMENT_3D('',#193,#151,#152);
#131=AXIS2_PLACEMENT_3D('',#195,#153,#154);
#132=AXIS2_PLACEMENT_3D('',#224,#155,#156);
#133=AXIS2_PLACEMENT_3D('',#226,#157,#158);
#134=AXIS2_PLACEMENT_3D('',#227,#159,#160);
#135=AXIS2_PLACEMENT_3D('',#228,#161,#162);
#136=AXIS2_PLACEMENT_3D('',#231,#164,#165);
#137=AXIS2_PLACEMENT_3D('',#232,#166,#167);
#138=AXIS2_PLACEMENT_3D('',#234,#168,#169);
#139=AXIS2_PLACEMENT_3D('',#235,#170,#171);
#140=AXIS2_PLACEMENT_3D('',#237,#172,#173);
#141=AXIS2_PLACEMENT_3D('',#239,#175,#176);
#142=AXIS2_PLACEMENT_3D('',#241,#177,#178);
#143=AXIS2_PLACEMENT_3D('',#242,#179,#180);
#144=AXIS2_PLACEMENT_3D('',#245,#181,#182);
#145=AXIS2_PLACEMENT_3D('',#247,#184,#185);
#146=AXIS2_PLACEMENT_3D('',#276,#186,#187);
#147=AXIS2_PLACEMENT_3D('',#277,#188,#189);
#148=AXIS2_PLACEMENT_3D('',#278,#190,#191);
#149=DIRECTION('axis',(0.,0.,1.));
#150=DIRECTION('refdir',(1.,0.,0.));
#151=DIRECTION('center_axis',(-1.,0.,-8.0118685686509E-32));
#152=DIRECTION('ref_axis',(-8.0118685686509E-32,0.,1.));
#153=DIRECTION('center_axis',(1.,0.,8.0118685686509E-32));
#154=DIRECTION('ref_axis',(8.0118685686509E-32,0.,-1.));
#155=DIRECTION('center_axis',(9.81170919778761E-48,-1.,-1.22464679914735E-16));
#156=DIRECTION('ref_axis',(0.,-1.22464679914735E-16,1.));
#157=DIRECTION('center_axis',(1.,0.,8.0118685686509E-32));
#158=DIRECTION('ref_axis',(8.0118685686509E-32,0.,-1.));
#159=DIRECTION('center_axis',(1.,0.,8.0118685686509E-32));
#160=DIRECTION('ref_axis',(8.0118685686509E-32,0.,-1.));
#161=DIRECTION('center_axis',(1.,0.,8.0118685686509E-32));
#162=DIRECTION('ref_axis',(0.,1.,-4.23200930435169E-16));
#163=DIRECTION('',(-1.,0.,-8.0118685686509E-32));
#164=DIRECTION('center_axis',(1.,0.,8.0118685686509E-32));
#165=DIRECTION('ref_axis',(8.0118685686509E-32,0.,-1.));
#166=DIRECTION('center_axis',(-1.,0.,-8.0118685686509E-32));
#167=DIRECTION('ref_axis',(-8.0118685686509E-32,0.,1.));
#168=DIRECTION('center_axis',(1.,0.,8.0118685686509E-32));
#169=DIRECTION('ref_axis',(8.0118685686509E-32,0.,-1.));
#170=DIRECTION('center_axis',(1.,0.,8.0118685686509E-32));
#171=DIRECTION('ref_axis',(0.,1.,-4.23200930435169E-16));
#172=DIRECTION('center_axis',(1.,0.,8.0118685686509E-32));
#173=DIRECTION('ref_axis',(8.0118685686509E-32,0.,-1.));
#174=DIRECTION('',(-1.,0.,-8.0118685686509E-32));
#175=DIRECTION('center_axis',(-1.,0.,-8.0118685686509E-32));
#176=DIRECTION('ref_axis',(-8.0118685686509E-32,0.,1.));
#177=DIRECTION('center_axis',(1.,0.,8.0118685686509E-32));
#178=DIRECTION('ref_axis',(8.0118685686509E-32,0.,-1.));
#179=DIRECTION('center_axis',(1.,0.,8.0118685686509E-32));
#180=DIRECTION('ref_axis',(0.,1.,-4.23200930435169E-16));
#181=DIRECTION('center_axis',(1.,0.,8.0118685686509E-32));
#182=DIRECTION('ref_axis',(8.0118685686509E-32,0.,-1.));
#183=DIRECTION('',(-1.,0.,-8.0118685686509E-32));
#184=DIRECTION('center_axis',(1.,0.,8.0118685686509E-32));
#185=DIRECTION('ref_axis',(8.0118685686509E-32,0.,-1.));
#186=DIRECTION('center_axis',(1.,0.,8.0118685686509E-32));
#187=DIRECTION('ref_axis',(8.0118685686509E-32,0.,-1.));
#188=DIRECTION('center_axis',(9.81170919778761E-48,-1.,-1.22464679914735E-16));
#189=DIRECTION('ref_axis',(0.,-1.22464679914735E-16,1.));
#190=DIRECTION('center_axis',(1.,0.,8.0118685686509E-32));
#191=DIRECTION('ref_axis',(8.0118685686509E-32,0.,-1.));
#192=CARTESIAN_POINT('',(0.,0.,0.));
#193=CARTESIAN_POINT('Origin',(143.640006860532,2.5,3.06161699786839E-16));
#194=CARTESIAN_POINT('',(143.640006860532,-3.06161699786838E-16,2.5));
#195=CARTESIAN_POINT('Origin',(143.640006860532,0.,5.92515095490522E-16));
#196=CARTESIAN_POINT('Ctrl Pts',(137.36527380014,0.,9.32499999999998));
#197=CARTESIAN_POINT('Ctrl Pts',(137.36527380014,-9.32499999999998,9.32499999999998));
#198=CARTESIAN_POINT('Ctrl Pts',(137.36527380014,-9.32499999999998,5.92515095490521E-16));
#199=CARTESIAN_POINT('Ctrl Pts',(137.36527380014,-9.32499999999998,-9.32499999999998));
#200=CARTESIAN_POINT('Ctrl Pts',(137.36527380014,0.,-9.32499999999998));
#201=CARTESIAN_POINT('Ctrl Pts',(137.36527380014,9.32499999999998,-9.32499999999998));
#202=CARTESIAN_POINT('Ctrl Pts',(137.36527380014,9.32499999999998,5.92515095490521E-16));
#203=CARTESIAN_POINT('Ctrl Pts',(137.36527380014,9.32499999999998,9.32499999999998));
#204=CARTESIAN_POINT('Ctrl Pts',(137.36527380014,0.,9.32499999999998));
#205=CARTESIAN_POINT('Ctrl Pts',(143.640006860532,0.,8.7969157493904));
#206=CARTESIAN_POINT('Ctrl Pts',(143.640006860532,-8.7969157493904,8.7969157493904));
#207=CARTESIAN_POINT('Ctrl Pts',(143.640006860532,-8.7969157493904,5.92515095490522E-16));
#208=CARTESIAN_POINT('Ctrl Pts',(143.640006860532,-8.7969157493904,-8.7969157493904));
#209=CARTESIAN_POINT('Ctrl Pts',(143.640006860532,0.,-8.7969157493904));
#210=CARTESIAN_POINT('Ctrl Pts',(143.640006860532,8.7969157493904,-8.7969157493904));
#211=CARTESIAN_POINT('Ctrl Pts',(143.640006860532,8.7969157493904,5.92515095490522E-16));
#212=CARTESIAN_POINT('Ctrl Pts',(143.640006860532,8.7969157493904,8.7969157493904));
#213=CARTESIAN_POINT('Ctrl Pts',(143.640006860532,0.,8.7969157493904));
#214=CARTESIAN_POINT('Ctrl Pts',(143.640006860532,0.,2.5));
#215=CARTESIAN_POINT('Ctrl Pts',(143.640006860532,-2.5,2.5));
#216=CARTESIAN_POINT('Ctrl Pts',(143.640006860532,-2.5,5.92515095490522E-16));
#217=CARTESIAN_POINT('Ctrl Pts',(143.640006860532,-2.5,-2.5));
#218=CARTESIAN_POINT('Ctrl Pts',(143.640006860532,0.,-2.5));
#219=CARTESIAN_POINT('Ctrl Pts',(143.640006860532,2.5,-2.5));
#220=CARTESIAN_POINT('Ctrl Pts',(143.640006860532,2.5,5.92515095490522E-16));
#221=CARTESIAN_POINT('Ctrl Pts',(143.640006860532,2.5,2.5));
#222=CARTESIAN_POINT('Ctrl Pts',(143.640006860532,0.,2.5));
#223=CARTESIAN_POINT('',(137.36527380014,-1.14198314020491E-15,9.325));
#224=CARTESIAN_POINT('Origin',(136.79087884569,-3.06161699786838E-16,2.5));
#225=CARTESIAN_POINT('',(137.36527380014,-9.325,3.39688063159357E-15));
#226=CARTESIAN_POINT('Origin',(137.36527380014,0.,5.92515095490521E-16));
#227=CARTESIAN_POINT('Origin',(137.36527380014,0.,5.92515095490521E-16));
#228=CARTESIAN_POINT('Origin',(130.60263690007,0.,5.92515095490521E-16));
#229=CARTESIAN_POINT('',(123.84,-9.325,3.39688063159357E-15));
#230=CARTESIAN_POINT('',(130.60263690007,-9.325,3.39688063159357E-15));
#231=CARTESIAN_POINT('Origin',(123.84,0.,5.9251509549052E-16));
#232=CARTESIAN_POINT('Origin',(123.84,9.725,1.1909690121708E-15));
#233=CARTESIAN_POINT('',(123.84,-9.725,3.51717513180174E-15));
#234=CARTESIAN_POINT('Origin',(123.84,0.,5.9251509549052E-16));
#235=CARTESIAN_POINT('Origin',(126.34250000745,0.,5.9251509549052E-16));
#236=CARTESIAN_POINT('',(128.845000014901,-9.725,3.51717513180174E-15));
#237=CARTESIAN_POINT('Origin',(128.845000014901,0.,5.92515095490521E-16));
#238=CARTESIAN_POINT('',(126.34250000745,-9.725,3.51717513180174E-15));
#239=CARTESIAN_POINT('Origin',(128.845000014901,10.125,1.2399548841367E-15));
#240=CARTESIAN_POINT('',(128.845000014901,-10.125,3.63746963200992E-15));
#241=CARTESIAN_POINT('Origin',(128.845000014901,0.,5.92515095490521E-16));
#242=CARTESIAN_POINT('Origin',(133.121474596069,0.,5.92515095490521E-16));
#243=CARTESIAN_POINT('',(137.397949177237,-10.125,3.63746963200992E-15));
#244=CARTESIAN_POINT('',(137.397949177237,-1.2399548841367E-15,10.125));
#245=CARTESIAN_POINT('Origin',(137.397949177237,0.,5.92515095490521E-16));
#246=CARTESIAN_POINT('',(133.121474596069,-10.125,3.63746963200992E-15));
#247=CARTESIAN_POINT('Origin',(137.397949177237,0.,5.92515095490521E-16));
#248=CARTESIAN_POINT('Ctrl Pts',(137.397949177237,0.,10.125));
#249=CARTESIAN_POINT('Ctrl Pts',(137.397949177237,-10.125,10.125));
#250=CARTESIAN_POINT('Ctrl Pts',(137.397949177237,-10.125,5.92515095490521E-16));
#251=CARTESIAN_POINT('Ctrl Pts',(137.397949177237,-10.125,-10.125));
#252=CARTESIAN_POINT('Ctrl Pts',(137.397949177237,0.,-10.125));
#253=CARTESIAN_POINT('Ctrl Pts',(137.397949177237,10.125,-10.125));
#254=CARTESIAN_POINT('Ctrl Pts',(137.397949177237,10.125,5.92515095490521E-16));
#255=CARTESIAN_POINT('Ctrl Pts',(137.397949177237,10.125,10.125));
#256=CARTESIAN_POINT('Ctrl Pts',(137.397949177237,0.,10.125));
#257=CARTESIAN_POINT('Ctrl Pts',(144.440006860532,0.,9.56434107638363));
#258=CARTESIAN_POINT('Ctrl Pts',(144.440006860532,-9.56434107638363,9.56434107638363));
#259=CARTESIAN_POINT('Ctrl Pts',(144.440006860532,-9.56434107638363,5.92515095490522E-16));
#260=CARTESIAN_POINT('Ctrl Pts',(144.440006860532,-9.56434107638363,-9.56434107638362));
#261=CARTESIAN_POINT('Ctrl Pts',(144.440006860532,0.,-9.56434107638363));
#262=CARTESIAN_POINT('Ctrl Pts',(144.440006860532,9.56434107638363,-9.56434107638362));
#263=CARTESIAN_POINT('Ctrl Pts',(144.440006860532,9.56434107638363,5.92515095490522E-16));
#264=CARTESIAN_POINT('Ctrl Pts',(144.440006860532,9.56434107638363,9.56434107638363));
#265=CARTESIAN_POINT('Ctrl Pts',(144.440006860532,0.,9.56434107638363));
#266=CARTESIAN_POINT('Ctrl Pts',(144.440006860532,0.,2.5));
#267=CARTESIAN_POINT('Ctrl Pts',(144.440006860532,-2.5,2.5));
#268=CARTESIAN_POINT('Ctrl Pts',(144.440006860532,-2.5,5.92515095490522E-16));
#269=CARTESIAN_POINT('Ctrl Pts',(144.440006860532,-2.5,-2.5));
#270=CARTESIAN_POINT('Ctrl Pts',(144.440006860532,0.,-2.5));
#271=CARTESIAN_POINT('Ctrl Pts',(144.440006860532,2.5,-2.5));
#272=CARTESIAN_POINT('Ctrl Pts',(144.440006860532,2.5,5.92515095490522E-16));
#273=CARTESIAN_POINT('Ctrl Pts',(144.440006860532,2.5,2.5));
#274=CARTESIAN_POINT('Ctrl Pts',(144.440006860532,0.,2.5));
#275=CARTESIAN_POINT('',(144.440006860532,-3.06161699786838E-16,2.5));
#276=CARTESIAN_POINT('Origin',(144.440006860532,0.,5.92515095490522E-16));
#277=CARTESIAN_POINT('Origin',(136.79087884569,-3.06161699786838E-16,2.5));
#278=CARTESIAN_POINT('Origin',(144.440006860532,0.,0.));
#279=UNCERTAINTY_MEASURE_WITH_UNIT(LENGTH_MEASURE(0.01),#283,
'DISTANCE_ACCURACY_VALUE',
'Maximum model space distance between geometric entities at asserted c
onnectivities');
#280=UNCERTAINTY_MEASURE_WITH_UNIT(LENGTH_MEASURE(0.01),#283,
'DISTANCE_ACCURACY_VALUE',
'Maximum model space distance between geometric entities at asserted c
onnectivities');
#281=(
GEOMETRIC_REPRESENTATION_CONTEXT(3)
GLOBAL_UNCERTAINTY_ASSIGNED_CONTEXT((#279))
GLOBAL_UNIT_ASSIGNED_CONTEXT((#283,#284,#285))
REPRESENTATION_CONTEXT('','3D')
);
#282=(
GEOMETRIC_REPRESENTATION_CONTEXT(3)
GLOBAL_UNCERTAINTY_ASSIGNED_CONTEXT((#280))
GLOBAL_UNIT_ASSIGNED_CONTEXT((#283,#284,#285))
REPRESENTATION_CONTEXT('','3D')
);
#283=(
LENGTH_UNIT()
NAMED_UNIT(*)
SI_UNIT(.MILLI.,.METRE.)
);
#284=(
NAMED_UNIT(*)
PLANE_ANGLE_UNIT()
SI_UNIT($,.RADIAN.)
);
#285=(
NAMED_UNIT(*)
SI_UNIT($,.STERADIAN.)
SOLID_ANGLE_UNIT()
);
#286=SHAPE_DEFINITION_REPRESENTATION(#287,#288);
#287=PRODUCT_DEFINITION_SHAPE('',$,#290);
#288=SHAPE_REPRESENTATION('',(#129),#281);
#289=PRODUCT_DEFINITION_CONTEXT('part definition',#294,'design');
#290=PRODUCT_DEFINITION('Pi\X\E8ce \X\E0 main V15',
'Pi\X\E8ce \X\E0 main V15 v12',#291,#289);
#291=PRODUCT_DEFINITION_FORMATION('',$,#296);
#292=PRODUCT_RELATED_PRODUCT_CATEGORY('Pi\X\E8ce \X\E0 main V15 v12',
'Pi\X\E8ce \X\E0 main V15 v12',(#296));
#293=APPLICATION_PROTOCOL_DEFINITION('international standard',
'automotive_design',2009,#294);
#294=APPLICATION_CONTEXT(
'Core Data for Automotive Mechanical Design Process');
#295=PRODUCT_CONTEXT('part definition',#294,'mechanical');
#296=PRODUCT('Pi\X\E8ce \X\E0 main V15','Pi\X\E8ce \X\E0 main V15 v12',
$,(#295));
#297=PRESENTATION_STYLE_ASSIGNMENT((#310));
#298=PRESENTATION_STYLE_ASSIGNMENT((#311));
#299=PRESENTATION_STYLE_ASSIGNMENT((#312));
#300=PRESENTATION_STYLE_ASSIGNMENT((#313));
#301=PRESENTATION_STYLE_ASSIGNMENT((#314));
#302=PRESENTATION_STYLE_ASSIGNMENT((#315));
#303=PRESENTATION_STYLE_ASSIGNMENT((#316));
#304=PRESENTATION_STYLE_ASSIGNMENT((#317));
#305=PRESENTATION_STYLE_ASSIGNMENT((#318));
#306=PRESENTATION_STYLE_ASSIGNMENT((#319));
#307=PRESENTATION_STYLE_ASSIGNMENT((#320));
#308=PRESENTATION_STYLE_ASSIGNMENT((#321));
#309=PRESENTATION_STYLE_ASSIGNMENT((#322));
#310=SURFACE_STYLE_USAGE(.BOTH.,#323);
#311=SURFACE_STYLE_USAGE(.BOTH.,#324);
#312=SURFACE_STYLE_USAGE(.BOTH.,#325);
#313=SURFACE_STYLE_USAGE(.BOTH.,#326);
#314=SURFACE_STYLE_USAGE(.BOTH.,#327);
#315=SURFACE_STYLE_USAGE(.BOTH.,#328);
#316=SURFACE_STYLE_USAGE(.BOTH.,#329);
#317=SURFACE_STYLE_USAGE(.BOTH.,#330);
#318=SURFACE_STYLE_USAGE(.BOTH.,#331);
#319=SURFACE_STYLE_USAGE(.BOTH.,#332);
#320=SURFACE_STYLE_USAGE(.BOTH.,#333);
#321=SURFACE_STYLE_USAGE(.BOTH.,#334);
#322=SURFACE_STYLE_USAGE(.BOTH.,#335);
#323=SURFACE_SIDE_STYLE('',(#336));
#324=SURFACE_SIDE_STYLE('',(#337));
#325=SURFACE_SIDE_STYLE('',(#338));
#326=SURFACE_SIDE_STYLE('',(#339));
#327=SURFACE_SIDE_STYLE('',(#340));
#328=SURFACE_SIDE_STYLE('',(#341));
#329=SURFACE_SIDE_STYLE('',(#342));
#330=SURFACE_SIDE_STYLE('',(#343));
#331=SURFACE_SIDE_STYLE('',(#344));
#332=SURFACE_SIDE_STYLE('',(#345));
#333=SURFACE_SIDE_STYLE('',(#346));
#334=SURFACE_SIDE_STYLE('',(#347));
#335=SURFACE_SIDE_STYLE('',(#348));
#336=SURFACE_STYLE_FILL_AREA(#349);
#337=SURFACE_STYLE_FILL_AREA(#350);
#338=SURFACE_STYLE_FILL_AREA(#351);
#339=SURFACE_STYLE_FILL_AREA(#352);
#340=SURFACE_STYLE_FILL_AREA(#353);
#341=SURFACE_STYLE_FILL_AREA(#354);
#342=SURFACE_STYLE_FILL_AREA(#355);
#343=SURFACE_STYLE_FILL_AREA(#356);
#344=SURFACE_STYLE_FILL_AREA(#357);
#345=SURFACE_STYLE_FILL_AREA(#358);
#346=SURFACE_STYLE_FILL_AREA(#359);
#347=SURFACE_STYLE_FILL_AREA(#360);
#348=SURFACE_STYLE_FILL_AREA(#361);
#349=FILL_AREA_STYLE('Acier - Satin\X\E9',(#362));
#350=FILL_AREA_STYLE('Gold - Polished (1) (2) (1)',(#363));
#351=FILL_AREA_STYLE('Plastique - Brillant (bleu) (1)',(#364));
#352=FILL_AREA_STYLE('Gold - Polished (1) (1)',(#365));
#353=FILL_AREA_STYLE('Silicone (blanc)',(#366));
#354=FILL_AREA_STYLE('Gold - Polished (1) (1)',(#367));
#355=FILL_AREA_STYLE('Plastique - Brillant (bleu)',(#368));
#356=FILL_AREA_STYLE('Acier inoxydable - Satin\X\E9',(#369));
#357=FILL_AREA_STYLE('Cuivre - Brut',(#370));
#358=FILL_AREA_STYLE('Peinture - Brillant \X\E9maill\X\E9 (vert)',(#371));
#359=FILL_AREA_STYLE('Opaque(8,8,8)',(#372));
#360=FILL_AREA_STYLE('Caoutchouc - Souple (1)',(#373));
#361=FILL_AREA_STYLE('Caoutchouc - Souple',(#374));
#362=FILL_AREA_STYLE_COLOUR('Acier - Satin\X\E9',#375);
#363=FILL_AREA_STYLE_COLOUR('Gold - Polished (1) (2) (1)',#376);
#364=FILL_AREA_STYLE_COLOUR('Plastique - Brillant (bleu) (1)',#377);
#365=FILL_AREA_STYLE_COLOUR('Gold - Polished (1) (1)',#378);
#366=FILL_AREA_STYLE_COLOUR('Silicone (blanc)',#379);
#367=FILL_AREA_STYLE_COLOUR('Gold - Polished (1) (1)',#380);
#368=FILL_AREA_STYLE_COLOUR('Plastique - Brillant (bleu)',#381);
#369=FILL_AREA_STYLE_COLOUR('Acier inoxydable - Satin\X\E9',#382);
#370=FILL_AREA_STYLE_COLOUR('Cuivre - Brut',#383);
#371=FILL_AREA_STYLE_COLOUR('Peinture - Brillant \X\E9maill\X\E9 (vert
)',#384);
#372=FILL_AREA_STYLE_COLOUR('Opaque(8,8,8)',#385);
#373=FILL_AREA_STYLE_COLOUR('Caoutchouc - Souple (1)',#386);
#374=FILL_AREA_STYLE_COLOUR('Caoutchouc - Souple',#387);
#375=COLOUR_RGB('Acier - Satin\X\E9',0.627450980392157,0.627450980392157,
0.627450980392157);
#376=COLOUR_RGB('Gold - Polished (1) (2) (1)',0.984313725490196,1.,0.0431372549019608);
#377=COLOUR_RGB('Plastique - Brillant (bleu) (1)',0.,0.568627450980392,
1.);
#378=COLOUR_RGB('Gold - Polished (1) (1)',0.243137254901961,0.784313725490196,
0.109803921568627);
#379=COLOUR_RGB('Silicone (blanc)',0.964705882352941,0.964705882352941,
0.952941176470588);
#380=COLOUR_RGB('Gold - Polished (1) (1)',0.635294117647059,1.,0.545098039215686);
#381=COLOUR_RGB('Plastique - Brillant (bleu)',0.,1.,1.);
#382=COLOUR_RGB('Acier inoxydable - Satin\X\E9',0.796078431372549,0.796078431372549,
0.796078431372549);
#383=COLOUR_RGB('Cuivre - Brut',0.,0.,0.);
#384=COLOUR_RGB('Peinture - Brillant \X\E9maill\X\E9 (vert)',0.266666666666667,
0.588235294117647,0.282352941176471);
#385=COLOUR_RGB('Opaque(8,8,8)',0.0313725490196078,0.0313725490196078,0.0313725490196078);
#386=COLOUR_RGB('Caoutchouc - Souple (1)',1.,0.,0.);
#387=COLOUR_RGB('Caoutchouc - Souple',0.152941176470588,0.152941176470588,
0.152941176470588);
ENDSEC;
END-ISO-10303-21;
