ISO-10303-21;
HEADER;
FILE_DESCRIPTION(('CATIA V5 STEP Exchange'),'2;1');

FILE_NAME('C:\\Users\\NOSTROMO\\Desktop\\Bague_Thermique.stp','2020-10-12T15:04:44+00:00',('none'),('none'),'CATIA Version 5 Release 20 GA (IN-10)','CATIA V5 STEP AP203','none');

FILE_SCHEMA(('CONFIG_CONTROL_DESIGN'));

ENDSEC;
/* file written by CATIA V5R20 */
DATA;
#5=PRODUCT('Bague_Thermique','','',(#2)) ;
#1=APPLICATION_CONTEXT('configuration controlled 3D design of mechanical parts and assemblies') ;
#14=PRODUCT_DEFINITION('',' ',#6,#3) ;
#16=SECURITY_CLASSIFICATION(' ',' ',#15) ;
#15=SECURITY_CLASSIFICATION_LEVEL('unclassified') ;
#47=CARTESIAN_POINT(' ',(0.,0.,0.)) ;
#52=CARTESIAN_POINT('Axis2P3D Location',(0.,0.,2.5)) ;
#57=CARTESIAN_POINT('Line Origine',(-15.,8.49830834647E-015,2.5)) ;
#61=CARTESIAN_POINT('Vertex',(-15.,8.49830834647E-015,2.)) ;
#63=CARTESIAN_POINT('Vertex',(-15.,8.49830834647E-015,5.)) ;
#66=CARTESIAN_POINT('Axis2P3D Location',(0.,0.,5.)) ;
#70=CARTESIAN_POINT('Vertex',(15.,0.,5.)) ;
#73=CARTESIAN_POINT('Line Origine',(15.,0.,2.5)) ;
#77=CARTESIAN_POINT('Vertex',(15.,0.,2.)) ;
#80=CARTESIAN_POINT('Axis2P3D Location',(0.,0.,2.)) ;
#92=CARTESIAN_POINT('Axis2P3D Location',(0.,0.,5.)) ;
#97=CARTESIAN_POINT('Axis2P3D Location',(0.,0.,2.)) ;
#109=CARTESIAN_POINT('Axis2P3D Location',(0.,0.,1.)) ;
#114=CARTESIAN_POINT('Axis2P3D Location',(0.,0.,2.)) ;
#118=CARTESIAN_POINT('Vertex',(17.5,0.,2.)) ;
#120=CARTESIAN_POINT('Vertex',(-17.5,-2.14313189851E-015,2.)) ;
#123=CARTESIAN_POINT('Line Origine',(-17.5,-2.14313189851E-015,1.)) ;
#127=CARTESIAN_POINT('Vertex',(-17.5,-2.14313189851E-015,0.)) ;
#130=CARTESIAN_POINT('Axis2P3D Location',(0.,0.,0.)) ;
#134=CARTESIAN_POINT('Vertex',(17.5,0.,0.)) ;
#137=CARTESIAN_POINT('Line Origine',(17.5,0.,1.)) ;
#149=CARTESIAN_POINT('Axis2P3D Location',(0.,0.,2.)) ;
#154=CARTESIAN_POINT('Axis2P3D Location',(0.,0.,0.)) ;
#166=CARTESIAN_POINT('Axis2P3D Location',(0.,0.,2.)) ;
#180=CARTESIAN_POINT('Axis2P3D Location',(0.,0.,5.)) ;
#189=CARTESIAN_POINT('Axis2P3D Location',(0.,0.,5.)) ;
#193=CARTESIAN_POINT('Vertex',(-12.5,-1.53080849893E-015,5.)) ;
#195=CARTESIAN_POINT('Vertex',(12.5,3.06161699787E-015,5.)) ;
#198=CARTESIAN_POINT('Axis2P3D Location',(0.,0.,5.)) ;
#208=CARTESIAN_POINT('Axis2P3D Location',(0.,0.,1.)) ;
#213=CARTESIAN_POINT('Axis2P3D Location',(0.,0.,2.)) ;
#217=CARTESIAN_POINT('Vertex',(12.5,3.06161699787E-015,2.)) ;
#219=CARTESIAN_POINT('Vertex',(-12.5,-1.53080849893E-015,2.)) ;
#222=CARTESIAN_POINT('Line Origine',(-12.5,-1.53080849893E-015,1.)) ;
#227=CARTESIAN_POINT('Line Origine',(12.5,0.,1.)) ;
#239=CARTESIAN_POINT('Axis2P3D Location',(0.,0.,2.)) ;
#251=CARTESIAN_POINT('Axis2P3D Location',(0.,0.,0.)) ;
#260=CARTESIAN_POINT('Axis2P3D Location',(3.46944695195E-015,0.,0.)) ;
#264=CARTESIAN_POINT('Vertex',(-14.5,-4.23815676998E-007,0.)) ;
#266=CARTESIAN_POINT('Vertex',(14.5,4.31599200823E-015,0.)) ;
#269=CARTESIAN_POINT('Axis2P3D Location',(-3.27515792264E-015,-2.22044604925E-016,0.)) ;
#279=CARTESIAN_POINT('Axis2P3D Location',(1.7763568394E-015,1.37667655054E-014,14.5)) ;
#284=CARTESIAN_POINT('Line Origine',(-13.5,3.26739439743E-007,1.)) ;
#289=CARTESIAN_POINT('Line Origine',(13.5,4.96776949079E-015,1.)) ;
#301=CARTESIAN_POINT('Axis2P3D Location',(-1.11022302463E-014,-1.37667655054E-014,14.5)) ;
#53=DIRECTION('Axis2P3D Direction',(0.,0.,1.)) ;
#54=DIRECTION('Axis2P3D XDirection',(1.,0.,0.)) ;
#58=DIRECTION('Vector Direction',(0.,0.,1.)) ;
#67=DIRECTION('Axis2P3D Direction',(0.,0.,1.)) ;
#74=DIRECTION('Vector Direction',(0.,0.,1.)) ;
#81=DIRECTION('Axis2P3D Direction',(0.,0.,1.)) ;
#93=DIRECTION('Axis2P3D Direction',(0.,0.,1.)) ;
#98=DIRECTION('Axis2P3D Direction',(0.,0.,1.)) ;
#110=DIRECTION('Axis2P3D Direction',(0.,0.,-1.)) ;
#111=DIRECTION('Axis2P3D XDirection',(1.,0.,0.)) ;
#115=DIRECTION('Axis2P3D Direction',(0.,0.,-1.)) ;
#124=DIRECTION('Vector Direction',(0.,0.,-1.)) ;
#131=DIRECTION('Axis2P3D Direction',(0.,0.,-1.)) ;
#138=DIRECTION('Vector Direction',(0.,0.,-1.)) ;
#150=DIRECTION('Axis2P3D Direction',(0.,0.,-1.)) ;
#155=DIRECTION('Axis2P3D Direction',(0.,0.,-1.)) ;
#167=DIRECTION('Axis2P3D Direction',(0.,0.,-1.)) ;
#168=DIRECTION('Axis2P3D XDirection',(1.,0.,0.)) ;
#181=DIRECTION('Axis2P3D Direction',(0.,0.,1.)) ;
#182=DIRECTION('Axis2P3D XDirection',(1.,0.,0.)) ;
#190=DIRECTION('Axis2P3D Direction',(0.,0.,1.)) ;
#199=DIRECTION('Axis2P3D Direction',(0.,0.,1.)) ;
#209=DIRECTION('Axis2P3D Direction',(0.,0.,-1.)) ;
#210=DIRECTION('Axis2P3D XDirection',(1.,0.,0.)) ;
#214=DIRECTION('Axis2P3D Direction',(0.,0.,-1.)) ;
#223=DIRECTION('Vector Direction',(0.,0.,-1.)) ;
#228=DIRECTION('Vector Direction',(0.,0.,-1.)) ;
#240=DIRECTION('Axis2P3D Direction',(0.,0.,-1.)) ;
#252=DIRECTION('Axis2P3D Direction',(0.,0.,1.)) ;
#253=DIRECTION('Axis2P3D XDirection',(1.,0.,0.)) ;
#261=DIRECTION('Axis2P3D Direction',(0.,0.,1.)) ;
#270=DIRECTION('Axis2P3D Direction',(0.,0.,1.)) ;
#280=DIRECTION('Axis2P3D Direction',(-0.,-8.881784197E-016,-1.)) ;
#281=DIRECTION('Axis2P3D XDirection',(1.,2.3640093714E-016,0.)) ;
#285=DIRECTION('Vector Direction',(-0.707106781187,1.71140491695E-008,-0.707106781187)) ;
#290=DIRECTION('Vector Direction',(0.707106781187,-4.60876277743E-016,-0.707106781187)) ;
#302=DIRECTION('Axis2P3D Direction',(8.881784197E-016,8.881784197E-016,-1.)) ;
#303=DIRECTION('Axis2P3D XDirection',(-0.964135557975,0.265410297179,-6.58544507983E-016)) ;
#48=AXIS2_PLACEMENT_3D(' ',#47,$,$) ;
#55=AXIS2_PLACEMENT_3D('Cylinder Axis2P3D',#52,#53,#54) ;
#68=AXIS2_PLACEMENT_3D('Circle Axis2P3D',#66,#67,$) ;
#82=AXIS2_PLACEMENT_3D('Circle Axis2P3D',#80,#81,$) ;
#94=AXIS2_PLACEMENT_3D('Circle Axis2P3D',#92,#93,$) ;
#99=AXIS2_PLACEMENT_3D('Circle Axis2P3D',#97,#98,$) ;
#112=AXIS2_PLACEMENT_3D('Cylinder Axis2P3D',#109,#110,#111) ;
#116=AXIS2_PLACEMENT_3D('Circle Axis2P3D',#114,#115,$) ;
#132=AXIS2_PLACEMENT_3D('Circle Axis2P3D',#130,#131,$) ;
#151=AXIS2_PLACEMENT_3D('Circle Axis2P3D',#149,#150,$) ;
#156=AXIS2_PLACEMENT_3D('Circle Axis2P3D',#154,#155,$) ;
#169=AXIS2_PLACEMENT_3D('Plane Axis2P3D',#166,#167,#168) ;
#183=AXIS2_PLACEMENT_3D('Plane Axis2P3D',#180,#181,#182) ;
#191=AXIS2_PLACEMENT_3D('Circle Axis2P3D',#189,#190,$) ;
#200=AXIS2_PLACEMENT_3D('Circle Axis2P3D',#198,#199,$) ;
#211=AXIS2_PLACEMENT_3D('Cylinder Axis2P3D',#208,#209,#210) ;
#215=AXIS2_PLACEMENT_3D('Circle Axis2P3D',#213,#214,$) ;
#241=AXIS2_PLACEMENT_3D('Circle Axis2P3D',#239,#240,$) ;
#254=AXIS2_PLACEMENT_3D('Plane Axis2P3D',#251,#252,#253) ;
#262=AXIS2_PLACEMENT_3D('Circle Axis2P3D',#260,#261,$) ;
#271=AXIS2_PLACEMENT_3D('Circle Axis2P3D',#269,#270,$) ;
#282=AXIS2_PLACEMENT_3D('Cone Axis2P3D',#279,#280,#281) ;
#304=AXIS2_PLACEMENT_3D('Cone Axis2P3D',#301,#302,#303) ;
#40=PRODUCT_DEFINITION_SHAPE(' ',' ',#14) ;
#31=APPROVAL_PERSON_ORGANIZATION(#25,#21,#19) ;
#25=PERSON_AND_ORGANIZATION(#22,#23) ;
#22=PERSON(' ',' ',' ',$,$,$) ;
#23=ORGANIZATION(' ',' ',' ') ;
#21=APPROVAL(#20,' ') ;
#20=APPROVAL_STATUS('not_yet_approved') ;
#19=APPROVAL_ROLE('APPROVER') ;
#13=DATE_AND_TIME(#11,#12) ;
#12=LOCAL_TIME(17,4,43.,#10) ;
#10=COORDINATED_UNIVERSAL_TIME_OFFSET(0,0,.AHEAD.) ;
#86=ORIENTED_EDGE('',*,*,#65,.T.) ;
#87=ORIENTED_EDGE('',*,*,#72,.F.) ;
#88=ORIENTED_EDGE('',*,*,#79,.F.) ;
#89=ORIENTED_EDGE('',*,*,#84,.F.) ;
#103=ORIENTED_EDGE('',*,*,#79,.T.) ;
#104=ORIENTED_EDGE('',*,*,#96,.F.) ;
#105=ORIENTED_EDGE('',*,*,#65,.F.) ;
#106=ORIENTED_EDGE('',*,*,#101,.F.) ;
#143=ORIENTED_EDGE('',*,*,#122,.T.) ;
#144=ORIENTED_EDGE('',*,*,#129,.F.) ;
#145=ORIENTED_EDGE('',*,*,#136,.F.) ;
#146=ORIENTED_EDGE('',*,*,#141,.T.) ;
#160=ORIENTED_EDGE('',*,*,#153,.T.) ;
#161=ORIENTED_EDGE('',*,*,#141,.F.) ;
#162=ORIENTED_EDGE('',*,*,#158,.F.) ;
#163=ORIENTED_EDGE('',*,*,#129,.T.) ;
#172=ORIENTED_EDGE('',*,*,#153,.F.) ;
#173=ORIENTED_EDGE('',*,*,#122,.F.) ;
#176=ORIENTED_EDGE('',*,*,#101,.T.) ;
#177=ORIENTED_EDGE('',*,*,#84,.T.) ;
#186=ORIENTED_EDGE('',*,*,#72,.T.) ;
#187=ORIENTED_EDGE('',*,*,#96,.T.) ;
#204=ORIENTED_EDGE('',*,*,#197,.F.) ;
#205=ORIENTED_EDGE('',*,*,#202,.F.) ;
#233=ORIENTED_EDGE('',*,*,#221,.T.) ;
#234=ORIENTED_EDGE('',*,*,#226,.T.) ;
#235=ORIENTED_EDGE('',*,*,#197,.T.) ;
#236=ORIENTED_EDGE('',*,*,#231,.F.) ;
#245=ORIENTED_EDGE('',*,*,#243,.T.) ;
#246=ORIENTED_EDGE('',*,*,#231,.T.) ;
#247=ORIENTED_EDGE('',*,*,#202,.T.) ;
#248=ORIENTED_EDGE('',*,*,#226,.F.) ;
#257=ORIENTED_EDGE('',*,*,#158,.T.) ;
#258=ORIENTED_EDGE('',*,*,#136,.T.) ;
#275=ORIENTED_EDGE('',*,*,#268,.F.) ;
#276=ORIENTED_EDGE('',*,*,#273,.F.) ;
#295=ORIENTED_EDGE('',*,*,#288,.T.) ;
#296=ORIENTED_EDGE('',*,*,#268,.T.) ;
#297=ORIENTED_EDGE('',*,*,#293,.F.) ;
#298=ORIENTED_EDGE('',*,*,#243,.F.) ;
#307=ORIENTED_EDGE('',*,*,#293,.T.) ;
#308=ORIENTED_EDGE('',*,*,#273,.T.) ;
#309=ORIENTED_EDGE('',*,*,#288,.F.) ;
#310=ORIENTED_EDGE('',*,*,#221,.F.) ;
#178=FACE_BOUND('',#175,.T.) ;
#206=FACE_BOUND('',#203,.T.) ;
#277=FACE_BOUND('',#274,.T.) ;
#51=CLOSED_SHELL('Closed Shell',(#91,#108,#148,#165,#179,#207,#238,#250,#278,#300,#312)) ;
#59=VECTOR('Line Direction',#58,1.) ;
#75=VECTOR('Line Direction',#74,1.) ;
#125=VECTOR('Line Direction',#124,1.) ;
#139=VECTOR('Line Direction',#138,1.) ;
#224=VECTOR('Line Direction',#223,1.) ;
#229=VECTOR('Line Direction',#228,1.) ;
#286=VECTOR('Line Direction',#285,1.) ;
#291=VECTOR('Line Direction',#290,1.) ;
#314=ADVANCED_BREP_SHAPE_REPRESENTATION('NONE',(#313),#46) ;
#49=SHAPE_REPRESENTATION(' ',(#48),#46) ;
#91=ADVANCED_FACE('Corps principal',(#90),#56,.T.) ;
#108=ADVANCED_FACE('Corps principal',(#107),#56,.T.) ;
#148=ADVANCED_FACE('Corps principal',(#147),#113,.T.) ;
#165=ADVANCED_FACE('Corps principal',(#164),#113,.T.) ;
#179=ADVANCED_FACE('Corps principal',(#174,#178),#170,.F.) ;
#207=ADVANCED_FACE('Corps principal',(#188,#206),#184,.T.) ;
#238=ADVANCED_FACE('Corps principal',(#237),#212,.F.) ;
#250=ADVANCED_FACE('Corps principal',(#249),#212,.F.) ;
#278=ADVANCED_FACE('Corps principal',(#259,#277),#255,.F.) ;
#300=ADVANCED_FACE('Corps principal',(#299),#283,.F.) ;
#312=ADVANCED_FACE('Corps principal',(#311),#305,.F.) ;
#4=APPLICATION_PROTOCOL_DEFINITION('international standard','config_control_design',1994,#1) ;
#32=APPROVAL_DATE_TIME(#13,#21) ;
#313=MANIFOLD_SOLID_BREP('Corps principal',#51) ;
#11=CALENDAR_DATE(2020,12,10) ;
#30=CC_DESIGN_APPROVAL(#21,(#16,#6,#14)) ;
#18=CC_DESIGN_DATE_AND_TIME_ASSIGNMENT(#13,#17,(#16)) ;
#29=CC_DESIGN_DATE_AND_TIME_ASSIGNMENT(#13,#28,(#14)) ;
#17=DATE_TIME_ROLE('classification_date') ;
#28=DATE_TIME_ROLE('creation_date') ;
#27=CC_DESIGN_PERSON_AND_ORGANIZATION_ASSIGNMENT(#25,#26,(#16)) ;
#33=CC_DESIGN_PERSON_AND_ORGANIZATION_ASSIGNMENT(#25,#34,(#6)) ;
#35=CC_DESIGN_PERSON_AND_ORGANIZATION_ASSIGNMENT(#25,#36,(#6,#14)) ;
#37=CC_DESIGN_PERSON_AND_ORGANIZATION_ASSIGNMENT(#25,#38,(#5)) ;
#26=PERSON_AND_ORGANIZATION_ROLE('classification_officer') ;
#34=PERSON_AND_ORGANIZATION_ROLE('design_supplier') ;
#36=PERSON_AND_ORGANIZATION_ROLE('creator') ;
#38=PERSON_AND_ORGANIZATION_ROLE('design_owner') ;
#39=CC_DESIGN_SECURITY_CLASSIFICATION(#16,(#6)) ;
#69=CIRCLE('generated circle',#68,15.) ;
#83=CIRCLE('generated circle',#82,15.) ;
#95=CIRCLE('generated circle',#94,15.) ;
#100=CIRCLE('generated circle',#99,15.) ;
#117=CIRCLE('generated circle',#116,17.5) ;
#133=CIRCLE('generated circle',#132,17.5) ;
#152=CIRCLE('generated circle',#151,17.5) ;
#157=CIRCLE('generated circle',#156,17.5) ;
#192=CIRCLE('generated circle',#191,12.5) ;
#201=CIRCLE('generated circle',#200,12.5) ;
#216=CIRCLE('generated circle',#215,12.5) ;
#242=CIRCLE('generated circle',#241,12.5) ;
#263=CIRCLE('generated circle',#262,14.5) ;
#272=CIRCLE('generated circle',#271,14.5) ;
#283=CONICAL_SURFACE('Cone',#282,0.,0.785398163397) ;
#305=CONICAL_SURFACE('Cone',#304,0.,0.785398163397) ;
#315=SHAPE_REPRESENTATION_RELATIONSHIP(' ',' ',#49,#314) ;
#56=CYLINDRICAL_SURFACE('generated cylinder',#55,15.) ;
#113=CYLINDRICAL_SURFACE('generated cylinder',#112,17.5) ;
#212=CYLINDRICAL_SURFACE('generated cylinder',#211,12.5) ;
#3=DESIGN_CONTEXT(' ',#1,'design') ;
#65=EDGE_CURVE('',#62,#64,#60,.T.) ;
#72=EDGE_CURVE('',#71,#64,#69,.T.) ;
#79=EDGE_CURVE('',#78,#71,#76,.T.) ;
#84=EDGE_CURVE('',#62,#78,#83,.F.) ;
#96=EDGE_CURVE('',#64,#71,#95,.T.) ;
#101=EDGE_CURVE('',#78,#62,#100,.F.) ;
#122=EDGE_CURVE('',#119,#121,#117,.T.) ;
#129=EDGE_CURVE('',#128,#121,#126,.F.) ;
#136=EDGE_CURVE('',#135,#128,#133,.T.) ;
#141=EDGE_CURVE('',#135,#119,#140,.F.) ;
#153=EDGE_CURVE('',#121,#119,#152,.T.) ;
#158=EDGE_CURVE('',#128,#135,#157,.T.) ;
#197=EDGE_CURVE('',#194,#196,#192,.T.) ;
#202=EDGE_CURVE('',#196,#194,#201,.T.) ;
#221=EDGE_CURVE('',#218,#220,#216,.T.) ;
#226=EDGE_CURVE('',#220,#194,#225,.F.) ;
#231=EDGE_CURVE('',#218,#196,#230,.F.) ;
#243=EDGE_CURVE('',#220,#218,#242,.T.) ;
#268=EDGE_CURVE('',#265,#267,#263,.F.) ;
#273=EDGE_CURVE('',#267,#265,#272,.F.) ;
#288=EDGE_CURVE('',#220,#265,#287,.T.) ;
#293=EDGE_CURVE('',#218,#267,#292,.T.) ;
#85=EDGE_LOOP('',(#86,#87,#88,#89)) ;
#102=EDGE_LOOP('',(#103,#104,#105,#106)) ;
#142=EDGE_LOOP('',(#143,#144,#145,#146)) ;
#159=EDGE_LOOP('',(#160,#161,#162,#163)) ;
#171=EDGE_LOOP('',(#172,#173)) ;
#175=EDGE_LOOP('',(#176,#177)) ;
#185=EDGE_LOOP('',(#186,#187)) ;
#203=EDGE_LOOP('',(#204,#205)) ;
#232=EDGE_LOOP('',(#233,#234,#235,#236)) ;
#244=EDGE_LOOP('',(#245,#246,#247,#248)) ;
#256=EDGE_LOOP('',(#257,#258)) ;
#274=EDGE_LOOP('',(#275,#276)) ;
#294=EDGE_LOOP('',(#295,#296,#297,#298)) ;
#306=EDGE_LOOP('',(#307,#308,#309,#310)) ;
#90=FACE_OUTER_BOUND('',#85,.T.) ;
#107=FACE_OUTER_BOUND('',#102,.T.) ;
#147=FACE_OUTER_BOUND('',#142,.T.) ;
#164=FACE_OUTER_BOUND('',#159,.T.) ;
#174=FACE_OUTER_BOUND('',#171,.T.) ;
#188=FACE_OUTER_BOUND('',#185,.T.) ;
#237=FACE_OUTER_BOUND('',#232,.T.) ;
#249=FACE_OUTER_BOUND('',#244,.T.) ;
#259=FACE_OUTER_BOUND('',#256,.T.) ;
#299=FACE_OUTER_BOUND('',#294,.T.) ;
#311=FACE_OUTER_BOUND('',#306,.T.) ;
#45=UNCERTAINTY_MEASURE_WITH_UNIT(LENGTH_MEASURE(0.005),#41,'distance_accuracy_value','CONFUSED CURVE UNCERTAINTY') ;
#60=LINE('Line',#57,#59) ;
#76=LINE('Line',#73,#75) ;
#126=LINE('Line',#123,#125) ;
#140=LINE('Line',#137,#139) ;
#225=LINE('Line',#222,#224) ;
#230=LINE('Line',#227,#229) ;
#287=LINE('Line',#284,#286) ;
#292=LINE('Line',#289,#291) ;
#2=MECHANICAL_CONTEXT(' ',#1,'mechanical') ;
#24=PERSONAL_ADDRESS(' ',' ',' ',' ',' ',' ',' ',' ',' ',' ',' ',' ',(#22),' ') ;
#170=PLANE('Plane',#169) ;
#184=PLANE('Plane',#183) ;
#255=PLANE('Plane',#254) ;
#43=PLANE_ANGLE_MEASURE_WITH_UNIT(PLANE_ANGLE_MEASURE(0.0174532925199),#42) ;
#7=PRODUCT_CATEGORY('part',$) ;
#9=PRODUCT_CATEGORY_RELATIONSHIP(' ',' ',#7,#8) ;
#6=PRODUCT_DEFINITION_FORMATION_WITH_SPECIFIED_SOURCE('',' ',#5,.NOT_KNOWN.) ;
#8=PRODUCT_RELATED_PRODUCT_CATEGORY('detail',$,(#5)) ;
#50=SHAPE_DEFINITION_REPRESENTATION(#40,#49) ;
#62=VERTEX_POINT('',#61) ;
#64=VERTEX_POINT('',#63) ;
#71=VERTEX_POINT('',#70) ;
#78=VERTEX_POINT('',#77) ;
#119=VERTEX_POINT('',#118) ;
#121=VERTEX_POINT('',#120) ;
#128=VERTEX_POINT('',#127) ;
#135=VERTEX_POINT('',#134) ;
#194=VERTEX_POINT('',#193) ;
#196=VERTEX_POINT('',#195) ;
#218=VERTEX_POINT('',#217) ;
#220=VERTEX_POINT('',#219) ;
#265=VERTEX_POINT('',#264) ;
#267=VERTEX_POINT('',#266) ;
#41=(LENGTH_UNIT()NAMED_UNIT(*)SI_UNIT(.MILLI.,.METRE.)) ;
#42=(NAMED_UNIT(*)PLANE_ANGLE_UNIT()SI_UNIT($,.RADIAN.)) ;
#44=(NAMED_UNIT(*)SI_UNIT($,.STERADIAN.)SOLID_ANGLE_UNIT()) ;
#46=(GEOMETRIC_REPRESENTATION_CONTEXT(3)GLOBAL_UNCERTAINTY_ASSIGNED_CONTEXT((#45))GLOBAL_UNIT_ASSIGNED_CONTEXT((#41,#42,#44))REPRESENTATION_CONTEXT(' ',' ')) ;
ENDSEC;
END-ISO-10303-21;
