ISO-10303-21;
HEADER;
/* Generated by software containing ST-Developer
 * from STEP Tools, Inc. (www.steptools.com) 
 */

FILE_DESCRIPTION(
/* description */ (''),
/* implementation_level */ '2;1');

FILE_NAME(
/* name */ 
'D:/Dropbox/3-CARBON vincent anne/1-EN COURS/1A-Reacteur/PlansVINCE/Fi
chiersUsinage/OgiveArriere.step',
/* time_stamp */ '2020-10-14T13:09:28+02:00',
/* author */ (''),
/* organization */ (''),
/* preprocessor_version */ 'ST-DEVELOPER v18.1',
/* originating_system */ 'Autodesk Translation Framework v9.3.0.1241',
/* authorisation */ '');

FILE_SCHEMA (('AUTOMOTIVE_DESIGN { 1 0 10303 214 3 1 1 }'));
ENDSEC;

DATA;
#10=MECHANICAL_DESIGN_GEOMETRIC_PRESENTATION_REPRESENTATION('',(#13),#258);
#11=SHAPE_REPRESENTATION_RELATIONSHIP('SRR','None',#265,#12);
#12=ADVANCED_BREP_SHAPE_REPRESENTATION('',(#14),#257);
#13=STYLED_ITEM('',(#274),#14);
#14=MANIFOLD_SOLID_BREP('Body1',#58);
#15=(
BOUNDED_CURVE()
B_SPLINE_CURVE(5,(#240,#241,#242,#243,#244,#245,#246,#247,#248,#249,#250,
#251,#252,#253,#254),.UNSPECIFIED.,.F.,.F.)
B_SPLINE_CURVE_WITH_KNOTS((6,1,1,1,1,1,1,1,1,1,6),(0.,0.1,0.2,0.3,0.4,0.5,
0.6,0.7,0.8,0.9,1.),.UNSPECIFIED.)
CURVE()
GEOMETRIC_REPRESENTATION_ITEM()
RATIONAL_B_SPLINE_CURVE((1.,1.,1.,1.,1.,1.,1.,1.,1.,1.,1.,1.,1.,1.,1.))
REPRESENTATION_ITEM('')
);
#16=(
BOUNDED_SURFACE()
B_SPLINE_SURFACE(5,2,((#104,#105,#106,#107,#108,#109,#110,#111,#112),(#113,
#114,#115,#116,#117,#118,#119,#120,#121),(#122,#123,#124,#125,#126,#127,
#128,#129,#130),(#131,#132,#133,#134,#135,#136,#137,#138,#139),(#140,#141,
#142,#143,#144,#145,#146,#147,#148),(#149,#150,#151,#152,#153,#154,#155,
#156,#157),(#158,#159,#160,#161,#162,#163,#164,#165,#166),(#167,#168,#169,
#170,#171,#172,#173,#174,#175),(#176,#177,#178,#179,#180,#181,#182,#183,
#184),(#185,#186,#187,#188,#189,#190,#191,#192,#193),(#194,#195,#196,#197,
#198,#199,#200,#201,#202),(#203,#204,#205,#206,#207,#208,#209,#210,#211),
(#212,#213,#214,#215,#216,#217,#218,#219,#220),(#221,#222,#223,#224,#225,
#226,#227,#228,#229),(#230,#231,#232,#233,#234,#235,#236,#237,#238)),
 .UNSPECIFIED.,.F.,.T.,.F.)
B_SPLINE_SURFACE_WITH_KNOTS((6,1,1,1,1,1,1,1,1,1,6),(3,2,2,2,3),(0.,0.1,
0.2,0.3,0.4,0.5,0.6,0.7,0.8,0.9,1.),(0.,1.5707963267949,3.14159265358979,
4.71238898038469,6.28318530717959),.UNSPECIFIED.)
GEOMETRIC_REPRESENTATION_ITEM()
RATIONAL_B_SPLINE_SURFACE(((1.,0.707106781186548,1.,0.707106781186548,1.,
0.707106781186548,1.,0.707106781186548,1.),(1.,0.707106781186548,1.,0.707106781186548,
1.,0.707106781186548,1.,0.707106781186548,1.),(1.,0.707106781186548,1.,
0.707106781186548,1.,0.707106781186548,1.,0.707106781186548,1.),(1.,0.707106781186548,
1.,0.707106781186548,1.,0.707106781186548,1.,0.707106781186548,1.),(1.,
0.707106781186548,1.,0.707106781186548,1.,0.707106781186548,1.,0.707106781186548,
1.),(1.,0.707106781186548,1.,0.707106781186548,1.,0.707106781186548,1.,
0.707106781186548,1.),(1.,0.707106781186548,1.,0.707106781186548,1.,0.707106781186548,
1.,0.707106781186548,1.),(1.,0.707106781186548,1.,0.707106781186548,1.,
0.707106781186548,1.,0.707106781186548,1.),(1.,0.707106781186548,1.,0.707106781186548,
1.,0.707106781186548,1.,0.707106781186548,1.),(1.,0.707106781186548,1.,
0.707106781186548,1.,0.707106781186548,1.,0.707106781186548,1.),(1.,0.707106781186548,
1.,0.707106781186548,1.,0.707106781186548,1.,0.707106781186548,1.),(1.,
0.707106781186548,1.,0.707106781186548,1.,0.707106781186548,1.,0.707106781186548,
1.),(1.,0.707106781186548,1.,0.707106781186548,1.,0.707106781186548,1.,
0.707106781186548,1.),(1.,0.707106781186548,1.,0.707106781186548,1.,0.707106781186548,
1.,0.707106781186548,1.),(1.,0.707106781186548,1.,0.707106781186548,1.,
0.707106781186548,1.,0.707106781186548,1.)))
REPRESENTATION_ITEM('')
SURFACE()
);
#17=LINE('',#102,#18);
#18=VECTOR('',#90,94.);
#19=CYLINDRICAL_SURFACE('',#75,94.);
#20=FACE_BOUND('',#26,.T.);
#21=FACE_OUTER_BOUND('',#25,.T.);
#22=FACE_OUTER_BOUND('',#27,.T.);
#23=FACE_OUTER_BOUND('',#28,.T.);
#24=FACE_OUTER_BOUND('',#29,.T.);
#25=EDGE_LOOP('',(#42));
#26=EDGE_LOOP('',(#43));
#27=EDGE_LOOP('',(#44,#45,#46,#47));
#28=EDGE_LOOP('',(#48));
#29=EDGE_LOOP('',(#49,#50,#51));
#30=CIRCLE('',#73,100.);
#31=CIRCLE('',#74,94.);
#32=CIRCLE('',#76,94.);
#33=VERTEX_POINT('',#95);
#34=VERTEX_POINT('',#97);
#35=VERTEX_POINT('',#100);
#36=VERTEX_POINT('',#239);
#37=EDGE_CURVE('',#33,#33,#30,.T.);
#38=EDGE_CURVE('',#34,#34,#31,.T.);
#39=EDGE_CURVE('',#35,#35,#32,.T.);
#40=EDGE_CURVE('',#35,#34,#17,.T.);
#41=EDGE_CURVE('',#33,#36,#15,.T.);
#42=ORIENTED_EDGE('',*,*,#37,.T.);
#43=ORIENTED_EDGE('',*,*,#38,.F.);
#44=ORIENTED_EDGE('',*,*,#39,.F.);
#45=ORIENTED_EDGE('',*,*,#40,.T.);
#46=ORIENTED_EDGE('',*,*,#38,.T.);
#47=ORIENTED_EDGE('',*,*,#40,.F.);
#48=ORIENTED_EDGE('',*,*,#39,.T.);
#49=ORIENTED_EDGE('',*,*,#41,.T.);
#50=ORIENTED_EDGE('',*,*,#41,.F.);
#51=ORIENTED_EDGE('',*,*,#37,.F.);
#52=PLANE('',#72);
#53=PLANE('',#77);
#54=ADVANCED_FACE('',(#21,#20),#52,.T.);
#55=ADVANCED_FACE('',(#22),#19,.T.);
#56=ADVANCED_FACE('',(#23),#53,.T.);
#57=ADVANCED_FACE('',(#24),#16,.T.);
#58=CLOSED_SHELL('',(#54,#55,#56,#57));
#59=DERIVED_UNIT_ELEMENT(#61,1.);
#60=DERIVED_UNIT_ELEMENT(#260,3.);
#61=(
MASS_UNIT()
NAMED_UNIT(*)
SI_UNIT(.KILO.,.GRAM.)
);
#62=DERIVED_UNIT((#59,#60));
#63=MEASURE_REPRESENTATION_ITEM('density measure',
POSITIVE_RATIO_MEASURE(2700.),#62);
#64=PROPERTY_DEFINITION_REPRESENTATION(#69,#66);
#65=PROPERTY_DEFINITION_REPRESENTATION(#70,#67);
#66=REPRESENTATION('material name',(#68),#257);
#67=REPRESENTATION('density',(#63),#257);
#68=DESCRIPTIVE_REPRESENTATION_ITEM('Aluminum 6061','Aluminum 6061');
#69=PROPERTY_DEFINITION('material property','material name',#267);
#70=PROPERTY_DEFINITION('material property','density of part',#267);
#71=AXIS2_PLACEMENT_3D('placement',#93,#78,#79);
#72=AXIS2_PLACEMENT_3D('',#94,#80,#81);
#73=AXIS2_PLACEMENT_3D('',#96,#82,#83);
#74=AXIS2_PLACEMENT_3D('',#98,#84,#85);
#75=AXIS2_PLACEMENT_3D('',#99,#86,#87);
#76=AXIS2_PLACEMENT_3D('',#101,#88,#89);
#77=AXIS2_PLACEMENT_3D('',#103,#91,#92);
#78=DIRECTION('axis',(0.,0.,1.));
#79=DIRECTION('refdir',(1.,0.,0.));
#80=DIRECTION('center_axis',(0.,1.,0.));
#81=DIRECTION('ref_axis',(0.,0.,1.));
#82=DIRECTION('center_axis',(0.,1.,0.));
#83=DIRECTION('ref_axis',(1.,0.,0.));
#84=DIRECTION('center_axis',(0.,1.,0.));
#85=DIRECTION('ref_axis',(1.,0.,0.));
#86=DIRECTION('center_axis',(0.,1.,0.));
#87=DIRECTION('ref_axis',(0.,0.,1.));
#88=DIRECTION('center_axis',(0.,1.,0.));
#89=DIRECTION('ref_axis',(1.,0.,0.));
#90=DIRECTION('',(0.,-1.,0.));
#91=DIRECTION('center_axis',(0.,1.,0.));
#92=DIRECTION('ref_axis',(0.,0.,1.));
#93=CARTESIAN_POINT('',(0.,0.,0.));
#94=CARTESIAN_POINT('Origin',(0.,-1070.,94.));
#95=CARTESIAN_POINT('',(0.,-1070.,100.));
#96=CARTESIAN_POINT('Origin',(0.,-1070.,5.53566982162662E-15));
#97=CARTESIAN_POINT('',(-1.15116799119851E-14,-1070.,-94.));
#98=CARTESIAN_POINT('Origin',(0.,-1070.,5.53566982162662E-15));
#99=CARTESIAN_POINT('Origin',(0.,-1060.,5.53566982162662E-15));
#100=CARTESIAN_POINT('',(-1.15116799119851E-14,-1050.,-94.));
#101=CARTESIAN_POINT('Origin',(0.,-1050.,5.53566982162662E-15));
#102=CARTESIAN_POINT('',(-1.15116799119851E-14,-1060.,-94.));
#103=CARTESIAN_POINT('Origin',(0.,-1050.,0.));
#104=CARTESIAN_POINT('Ctrl Pts',(0.,-1070.,100.));
#105=CARTESIAN_POINT('Ctrl Pts',(100.,-1070.,100.));
#106=CARTESIAN_POINT('Ctrl Pts',(100.,-1070.,5.53566982162662E-15));
#107=CARTESIAN_POINT('Ctrl Pts',(100.,-1070.,-100.));
#108=CARTESIAN_POINT('Ctrl Pts',(0.,-1070.,-100.));
#109=CARTESIAN_POINT('Ctrl Pts',(-100.,-1070.,-100.));
#110=CARTESIAN_POINT('Ctrl Pts',(-100.,-1070.,5.53566982162662E-15));
#111=CARTESIAN_POINT('Ctrl Pts',(-100.,-1070.,100.));
#112=CARTESIAN_POINT('Ctrl Pts',(0.,-1070.,100.));
#113=CARTESIAN_POINT('Ctrl Pts',(0.,-1073.49868643597,100.));
#114=CARTESIAN_POINT('Ctrl Pts',(100.,-1073.49868643597,100.));
#115=CARTESIAN_POINT('Ctrl Pts',(100.,-1073.49868643597,5.53566982162662E-15));
#116=CARTESIAN_POINT('Ctrl Pts',(100.,-1073.49868643597,-100.));
#117=CARTESIAN_POINT('Ctrl Pts',(0.,-1073.49868643597,-100.));
#118=CARTESIAN_POINT('Ctrl Pts',(-100.,-1073.49868643597,-100.));
#119=CARTESIAN_POINT('Ctrl Pts',(-100.,-1073.49868643597,5.53566982162662E-15));
#120=CARTESIAN_POINT('Ctrl Pts',(-100.,-1073.49868643597,100.));
#121=CARTESIAN_POINT('Ctrl Pts',(0.,-1073.49868643597,100.));
#122=CARTESIAN_POINT('Ctrl Pts',(0.,-1080.66010960305,99.8193356700482));
#123=CARTESIAN_POINT('Ctrl Pts',(99.8193356700482,-1080.66010960305,99.8193356700482));
#124=CARTESIAN_POINT('Ctrl Pts',(99.8193356700482,-1080.66010960305,5.53566982162662E-15));
#125=CARTESIAN_POINT('Ctrl Pts',(99.8193356700482,-1080.66010960305,-99.8193356700482));
#126=CARTESIAN_POINT('Ctrl Pts',(0.,-1080.66010960305,-99.8193356700482));
#127=CARTESIAN_POINT('Ctrl Pts',(-99.8193356700482,-1080.66010960305,-99.8193356700482));
#128=CARTESIAN_POINT('Ctrl Pts',(-99.8193356700482,-1080.66010960305,5.53566982162662E-15));
#129=CARTESIAN_POINT('Ctrl Pts',(-99.8193356700482,-1080.66010960305,99.8193356700482));
#130=CARTESIAN_POINT('Ctrl Pts',(0.,-1080.66010960305,99.8193356700482));
#131=CARTESIAN_POINT('Ctrl Pts',(0.,-1091.89475587237,99.0061919071919));
#132=CARTESIAN_POINT('Ctrl Pts',(99.0061919071918,-1091.89475587237,99.0061919071918));
#133=CARTESIAN_POINT('Ctrl Pts',(99.0061919071919,-1091.89475587237,5.53566982162662E-15));
#134=CARTESIAN_POINT('Ctrl Pts',(99.0061919071918,-1091.89475587237,-99.0061919071918));
#135=CARTESIAN_POINT('Ctrl Pts',(0.,-1091.89475587237,-99.0061919071919));
#136=CARTESIAN_POINT('Ctrl Pts',(-99.0061919071918,-1091.89475587237,-99.0061919071918));
#137=CARTESIAN_POINT('Ctrl Pts',(-99.0061919071919,-1091.89475587237,5.53566982162662E-15));
#138=CARTESIAN_POINT('Ctrl Pts',(-99.0061919071918,-1091.89475587237,99.0061919071918));
#139=CARTESIAN_POINT('Ctrl Pts',(0.,-1091.89475587237,99.0061919071919));
#140=CARTESIAN_POINT('Ctrl Pts',(0.,-1108.06352909855,96.8115328676985));
#141=CARTESIAN_POINT('Ctrl Pts',(96.8115328676985,-1108.06352909855,96.8115328676985));
#142=CARTESIAN_POINT('Ctrl Pts',(96.8115328676985,-1108.06352909855,5.53566982162662E-15));
#143=CARTESIAN_POINT('Ctrl Pts',(96.8115328676985,-1108.06352909855,-96.8115328676985));
#144=CARTESIAN_POINT('Ctrl Pts',(0.,-1108.06352909855,-96.8115328676985));
#145=CARTESIAN_POINT('Ctrl Pts',(-96.8115328676985,-1108.06352909855,-96.8115328676985));
#146=CARTESIAN_POINT('Ctrl Pts',(-96.8115328676985,-1108.06352909855,5.53566982162662E-15));
#147=CARTESIAN_POINT('Ctrl Pts',(-96.8115328676985,-1108.06352909855,96.8115328676985));
#148=CARTESIAN_POINT('Ctrl Pts',(0.,-1108.06352909855,96.8115328676985));
#149=CARTESIAN_POINT('Ctrl Pts',(0.,-1131.30998732389,91.9531971437836));
#150=CARTESIAN_POINT('Ctrl Pts',(91.9531971437835,-1131.30998732389,91.9531971437835));
#151=CARTESIAN_POINT('Ctrl Pts',(91.9531971437836,-1131.30998732389,5.53566982162662E-15));
#152=CARTESIAN_POINT('Ctrl Pts',(91.9531971437835,-1131.30998732389,-91.9531971437835));
#153=CARTESIAN_POINT('Ctrl Pts',(0.,-1131.30998732389,-91.9531971437836));
#154=CARTESIAN_POINT('Ctrl Pts',(-91.9531971437835,-1131.30998732389,-91.9531971437835));
#155=CARTESIAN_POINT('Ctrl Pts',(-91.9531971437836,-1131.30998732389,5.53566982162662E-15));
#156=CARTESIAN_POINT('Ctrl Pts',(-91.9531971437835,-1131.30998732389,91.9531971437835));
#157=CARTESIAN_POINT('Ctrl Pts',(0.,-1131.30998732389,91.9531971437836));
#158=CARTESIAN_POINT('Ctrl Pts',(0.,-1158.62808877144,84.5045548617494));
#159=CARTESIAN_POINT('Ctrl Pts',(84.5045548617494,-1158.62808877144,84.5045548617494));
#160=CARTESIAN_POINT('Ctrl Pts',(84.5045548617494,-1158.62808877144,5.53566982162662E-15));
#161=CARTESIAN_POINT('Ctrl Pts',(84.5045548617494,-1158.62808877144,-84.5045548617494));
#162=CARTESIAN_POINT('Ctrl Pts',(0.,-1158.62808877144,-84.5045548617494));
#163=CARTESIAN_POINT('Ctrl Pts',(-84.5045548617494,-1158.62808877144,-84.5045548617494));
#164=CARTESIAN_POINT('Ctrl Pts',(-84.5045548617494,-1158.62808877144,5.53566982162662E-15));
#165=CARTESIAN_POINT('Ctrl Pts',(-84.5045548617494,-1158.62808877144,84.5045548617494));
#166=CARTESIAN_POINT('Ctrl Pts',(0.,-1158.62808877144,84.5045548617494));
#167=CARTESIAN_POINT('Ctrl Pts',(0.,-1190.59151573652,73.7075459878825));
#168=CARTESIAN_POINT('Ctrl Pts',(73.7075459878824,-1190.59151573652,73.7075459878824));
#169=CARTESIAN_POINT('Ctrl Pts',(73.7075459878825,-1190.59151573652,5.53566982162662E-15));
#170=CARTESIAN_POINT('Ctrl Pts',(73.7075459878824,-1190.59151573652,-73.7075459878824));
#171=CARTESIAN_POINT('Ctrl Pts',(0.,-1190.59151573652,-73.7075459878824));
#172=CARTESIAN_POINT('Ctrl Pts',(-73.7075459878824,-1190.59151573652,-73.7075459878824));
#173=CARTESIAN_POINT('Ctrl Pts',(-73.7075459878825,-1190.59151573652,5.53566982162662E-15));
#174=CARTESIAN_POINT('Ctrl Pts',(-73.7075459878824,-1190.59151573652,73.7075459878824));
#175=CARTESIAN_POINT('Ctrl Pts',(0.,-1190.59151573652,73.7075459878825));
#176=CARTESIAN_POINT('Ctrl Pts',(0.,-1226.4761233544,58.5769812607814));
#177=CARTESIAN_POINT('Ctrl Pts',(58.5769812607814,-1226.4761233544,58.5769812607814));
#178=CARTESIAN_POINT('Ctrl Pts',(58.5769812607814,-1226.4761233544,5.53566982162662E-15));
#179=CARTESIAN_POINT('Ctrl Pts',(58.5769812607814,-1226.4761233544,-58.5769812607814));
#180=CARTESIAN_POINT('Ctrl Pts',(0.,-1226.4761233544,-58.5769812607814));
#181=CARTESIAN_POINT('Ctrl Pts',(-58.5769812607814,-1226.4761233544,-58.5769812607814));
#182=CARTESIAN_POINT('Ctrl Pts',(-58.5769812607814,-1226.4761233544,5.53566982162662E-15));
#183=CARTESIAN_POINT('Ctrl Pts',(-58.5769812607814,-1226.4761233544,58.5769812607814));
#184=CARTESIAN_POINT('Ctrl Pts',(0.,-1226.4761233544,58.5769812607814));
#185=CARTESIAN_POINT('Ctrl Pts',(0.,-1262.62001310248,40.7379493099528));
#186=CARTESIAN_POINT('Ctrl Pts',(40.7379493099528,-1262.62001310248,40.7379493099528));
#187=CARTESIAN_POINT('Ctrl Pts',(40.7379493099528,-1262.62001310248,5.53566982162662E-15));
#188=CARTESIAN_POINT('Ctrl Pts',(40.7379493099528,-1262.62001310248,-40.7379493099528));
#189=CARTESIAN_POINT('Ctrl Pts',(0.,-1262.62001310248,-40.7379493099528));
#190=CARTESIAN_POINT('Ctrl Pts',(-40.7379493099528,-1262.62001310248,-40.7379493099528));
#191=CARTESIAN_POINT('Ctrl Pts',(-40.7379493099528,-1262.62001310248,5.53566982162662E-15));
#192=CARTESIAN_POINT('Ctrl Pts',(-40.7379493099528,-1262.62001310248,40.7379493099528));
#193=CARTESIAN_POINT('Ctrl Pts',(0.,-1262.62001310248,40.7379493099528));
#194=CARTESIAN_POINT('Ctrl Pts',(0.,-1294.17710368452,22.8111600405169));
#195=CARTESIAN_POINT('Ctrl Pts',(22.8111600405169,-1294.17710368452,22.8111600405169));
#196=CARTESIAN_POINT('Ctrl Pts',(22.8111600405169,-1294.17710368452,5.53566982162662E-15));
#197=CARTESIAN_POINT('Ctrl Pts',(22.8111600405169,-1294.17710368452,-22.8111600405169));
#198=CARTESIAN_POINT('Ctrl Pts',(0.,-1294.17710368452,-22.8111600405169));
#199=CARTESIAN_POINT('Ctrl Pts',(-22.8111600405169,-1294.17710368452,-22.8111600405169));
#200=CARTESIAN_POINT('Ctrl Pts',(-22.8111600405169,-1294.17710368452,5.53566982162662E-15));
#201=CARTESIAN_POINT('Ctrl Pts',(-22.8111600405169,-1294.17710368452,22.8111600405169));
#202=CARTESIAN_POINT('Ctrl Pts',(0.,-1294.17710368452,22.8111600405169));
#203=CARTESIAN_POINT('Ctrl Pts',(0.,-1311.64067414824,10.8333139136846));
#204=CARTESIAN_POINT('Ctrl Pts',(10.8333139136846,-1311.64067414824,10.8333139136846));
#205=CARTESIAN_POINT('Ctrl Pts',(10.8333139136846,-1311.64067414824,5.53566982162662E-15));
#206=CARTESIAN_POINT('Ctrl Pts',(10.8333139136846,-1311.64067414824,-10.8333139136846));
#207=CARTESIAN_POINT('Ctrl Pts',(0.,-1311.64067414824,-10.8333139136846));
#208=CARTESIAN_POINT('Ctrl Pts',(-10.8333139136846,-1311.64067414824,-10.8333139136846));
#209=CARTESIAN_POINT('Ctrl Pts',(-10.8333139136846,-1311.64067414824,5.53566982162662E-15));
#210=CARTESIAN_POINT('Ctrl Pts',(-10.8333139136846,-1311.64067414824,10.8333139136846));
#211=CARTESIAN_POINT('Ctrl Pts',(0.,-1311.64067414824,10.8333139136846));
#212=CARTESIAN_POINT('Ctrl Pts',(0.,-1318.48011345609,4.31787531557492));
#213=CARTESIAN_POINT('Ctrl Pts',(4.31787531557492,-1318.48011345609,4.31787531557492));
#214=CARTESIAN_POINT('Ctrl Pts',(4.31787531557492,-1318.48011345609,5.53566982162662E-15));
#215=CARTESIAN_POINT('Ctrl Pts',(4.31787531557492,-1318.48011345609,-4.31787531557491));
#216=CARTESIAN_POINT('Ctrl Pts',(0.,-1318.48011345609,-4.31787531557491));
#217=CARTESIAN_POINT('Ctrl Pts',(-4.31787531557492,-1318.48011345609,-4.31787531557491));
#218=CARTESIAN_POINT('Ctrl Pts',(-4.31787531557492,-1318.48011345609,5.53566982162662E-15));
#219=CARTESIAN_POINT('Ctrl Pts',(-4.31787531557492,-1318.48011345609,4.31787531557492));
#220=CARTESIAN_POINT('Ctrl Pts',(0.,-1318.48011345609,4.31787531557492));
#221=CARTESIAN_POINT('Ctrl Pts',(0.,-1320.,1.23001701430016));
#222=CARTESIAN_POINT('Ctrl Pts',(1.23001701430016,-1320.,1.23001701430016));
#223=CARTESIAN_POINT('Ctrl Pts',(1.23001701430016,-1320.,5.53566982162662E-15));
#224=CARTESIAN_POINT('Ctrl Pts',(1.23001701430016,-1320.,-1.23001701430015));
#225=CARTESIAN_POINT('Ctrl Pts',(0.,-1320.,-1.23001701430015));
#226=CARTESIAN_POINT('Ctrl Pts',(-1.23001701430016,-1320.,-1.23001701430015));
#227=CARTESIAN_POINT('Ctrl Pts',(-1.23001701430016,-1320.,5.53566982162662E-15));
#228=CARTESIAN_POINT('Ctrl Pts',(-1.23001701430016,-1320.,1.23001701430016));
#229=CARTESIAN_POINT('Ctrl Pts',(0.,-1320.,1.23001701430016));
#230=CARTESIAN_POINT('Ctrl Pts',(0.,-1320.,5.53566982162662E-15));
#231=CARTESIAN_POINT('Ctrl Pts',(-9.86076131526265E-31,-1320.,5.53566982162662E-15));
#232=CARTESIAN_POINT('Ctrl Pts',(-9.86076131526265E-31,-1320.,5.53566982162662E-15));
#233=CARTESIAN_POINT('Ctrl Pts',(-9.86076131526265E-31,-1320.,5.53566982162662E-15));
#234=CARTESIAN_POINT('Ctrl Pts',(0.,-1320.,5.53566982162662E-15));
#235=CARTESIAN_POINT('Ctrl Pts',(9.86076131526265E-31,-1320.,5.53566982162662E-15));
#236=CARTESIAN_POINT('Ctrl Pts',(9.86076131526265E-31,-1320.,5.53566982162662E-15));
#237=CARTESIAN_POINT('Ctrl Pts',(9.86076131526265E-31,-1320.,5.53566982162662E-15));
#238=CARTESIAN_POINT('Ctrl Pts',(0.,-1320.,5.53566982162662E-15));
#239=CARTESIAN_POINT('',(0.,-1320.,5.53566982162662E-15));
#240=CARTESIAN_POINT('Ctrl Pts',(0.,-1070.,100.));
#241=CARTESIAN_POINT('Ctrl Pts',(0.,-1073.49868643597,100.));
#242=CARTESIAN_POINT('Ctrl Pts',(0.,-1080.66010960305,99.8193356700482));
#243=CARTESIAN_POINT('Ctrl Pts',(0.,-1091.89475587237,99.0061919071919));
#244=CARTESIAN_POINT('Ctrl Pts',(0.,-1108.06352909855,96.8115328676985));
#245=CARTESIAN_POINT('Ctrl Pts',(0.,-1131.30998732389,91.9531971437836));
#246=CARTESIAN_POINT('Ctrl Pts',(0.,-1158.62808877144,84.5045548617494));
#247=CARTESIAN_POINT('Ctrl Pts',(0.,-1190.59151573652,73.7075459878825));
#248=CARTESIAN_POINT('Ctrl Pts',(0.,-1226.4761233544,58.5769812607814));
#249=CARTESIAN_POINT('Ctrl Pts',(0.,-1262.62001310248,40.7379493099528));
#250=CARTESIAN_POINT('Ctrl Pts',(0.,-1294.17710368452,22.8111600405169));
#251=CARTESIAN_POINT('Ctrl Pts',(0.,-1311.64067414824,10.8333139136846));
#252=CARTESIAN_POINT('Ctrl Pts',(0.,-1318.48011345609,4.31787531557492));
#253=CARTESIAN_POINT('Ctrl Pts',(0.,-1320.,1.23001701430016));
#254=CARTESIAN_POINT('Ctrl Pts',(0.,-1320.,5.53566982162662E-15));
#255=UNCERTAINTY_MEASURE_WITH_UNIT(LENGTH_MEASURE(0.01),#259,
'DISTANCE_ACCURACY_VALUE',
'Maximum model space distance between geometric entities at asserted c
onnectivities');
#256=UNCERTAINTY_MEASURE_WITH_UNIT(LENGTH_MEASURE(0.01),#259,
'DISTANCE_ACCURACY_VALUE',
'Maximum model space distance between geometric entities at asserted c
onnectivities');
#257=(
GEOMETRIC_REPRESENTATION_CONTEXT(3)
GLOBAL_UNCERTAINTY_ASSIGNED_CONTEXT((#255))
GLOBAL_UNIT_ASSIGNED_CONTEXT((#259,#261,#262))
REPRESENTATION_CONTEXT('','3D')
);
#258=(
GEOMETRIC_REPRESENTATION_CONTEXT(3)
GLOBAL_UNCERTAINTY_ASSIGNED_CONTEXT((#256))
GLOBAL_UNIT_ASSIGNED_CONTEXT((#259,#261,#262))
REPRESENTATION_CONTEXT('','3D')
);
#259=(
LENGTH_UNIT()
NAMED_UNIT(*)
SI_UNIT(.MILLI.,.METRE.)
);
#260=(
LENGTH_UNIT()
NAMED_UNIT(*)
SI_UNIT($,.METRE.)
);
#261=(
NAMED_UNIT(*)
PLANE_ANGLE_UNIT()
SI_UNIT($,.RADIAN.)
);
#262=(
NAMED_UNIT(*)
SI_UNIT($,.STERADIAN.)
SOLID_ANGLE_UNIT()
);
#263=SHAPE_DEFINITION_REPRESENTATION(#264,#265);
#264=PRODUCT_DEFINITION_SHAPE('',$,#267);
#265=SHAPE_REPRESENTATION('',(#71),#257);
#266=PRODUCT_DEFINITION_CONTEXT('part definition',#271,'design');
#267=PRODUCT_DEFINITION('Reacteur-25/09_OgiveArriere',
'Reacteur-25/09_OgiveArriere v1',#268,#266);
#268=PRODUCT_DEFINITION_FORMATION('',$,#273);
#269=PRODUCT_RELATED_PRODUCT_CATEGORY('Reacteur-25/09_OgiveArriere v1',
'Reacteur-25/09_OgiveArriere v1',(#273));
#270=APPLICATION_PROTOCOL_DEFINITION('international standard',
'automotive_design',2009,#271);
#271=APPLICATION_CONTEXT(
'Core Data for Automotive Mechanical Design Process');
#272=PRODUCT_CONTEXT('part definition',#271,'mechanical');
#273=PRODUCT('Reacteur-25/09_OgiveArriere',
'Reacteur-25/09_OgiveArriere v1',$,(#272));
#274=PRESENTATION_STYLE_ASSIGNMENT((#275));
#275=SURFACE_STYLE_USAGE(.BOTH.,#276);
#276=SURFACE_SIDE_STYLE('',(#277));
#277=SURFACE_STYLE_FILL_AREA(#278);
#278=FILL_AREA_STYLE('Aluminum - Satin',(#279));
#279=FILL_AREA_STYLE_COLOUR('Aluminum - Satin',#280);
#280=COLOUR_RGB('Aluminum - Satin',0.96078431372549,0.96078431372549,0.964705882352941);
ENDSEC;
END-ISO-10303-21;
