ISO-10303-21;
HEADER;
FILE_DESCRIPTION(('CATIA V5 STEP Exchange'),'2;1');

FILE_NAME('D:\\@Private\\02_Moulin\\Meule\\Pivot.stp','2020-10-09T13:45:52+00:00',('none'),('none'),'CATIA Version 5-6 Release 2018 Beta 1736','CATIA V5 STEP AP203','none');

FILE_SCHEMA(('CONFIG_CONTROL_DESIGN'));

ENDSEC;
DATA;
#5=PRODUCT('Pivot','','',(#2)) ;
#1=APPLICATION_CONTEXT('configuration controlled 3D design of mechanical parts and assemblies') ;
#14=PRODUCT_DEFINITION('',' ',#6,#3) ;
#16=SECURITY_CLASSIFICATION(' ',' ',#15) ;
#15=SECURITY_CLASSIFICATION_LEVEL('unclassified') ;
#46=CARTESIAN_POINT(' ',(0.,0.,0.)) ;
#51=CARTESIAN_POINT('Axis2P3D Location',(0.,0.,0.)) ;
#56=CARTESIAN_POINT('Line Origine',(45.,0.,1.35315796496E-015)) ;
#60=CARTESIAN_POINT('Vertex',(45.,-20.,0.)) ;
#62=CARTESIAN_POINT('Vertex',(45.,20.,0.)) ;
#65=CARTESIAN_POINT('Line Origine',(0.,-20.,0.)) ;
#69=CARTESIAN_POINT('Vertex',(-45.,-20.,0.)) ;
#72=CARTESIAN_POINT('Line Origine',(-45.,0.,-1.35315796496E-015)) ;
#76=CARTESIAN_POINT('Vertex',(-45.,20.,0.)) ;
#79=CARTESIAN_POINT('Line Origine',(0.,20.,0.)) ;
#90=CARTESIAN_POINT('Axis2P3D Location',(-1.97215226305E-031,0.,-5.93029676192E-048)) ;
#94=CARTESIAN_POINT('Vertex',(-13.1637384284,-7.19138307906,-3.95835944511E-016)) ;
#96=CARTESIAN_POINT('Vertex',(13.1637384284,7.19138307906,3.95835944511E-016)) ;
#99=CARTESIAN_POINT('Axis2P3D Location',(-1.97215226305E-031,0.,-5.93029676192E-048)) ;
#109=CARTESIAN_POINT('Axis2P3D Location',(0.,20.,0.)) ;
#114=CARTESIAN_POINT('Line Origine',(-45.,20.,50.)) ;
#118=CARTESIAN_POINT('Vertex',(-45.,20.,100.)) ;
#121=CARTESIAN_POINT('Line Origine',(0.,20.,100.)) ;
#125=CARTESIAN_POINT('Vertex',(45.,20.,100.)) ;
#128=CARTESIAN_POINT('Line Origine',(45.,20.,50.)) ;
#140=CARTESIAN_POINT('Axis2P3D Location',(0.,-20.,0.)) ;
#145=CARTESIAN_POINT('Line Origine',(45.,-20.,50.)) ;
#149=CARTESIAN_POINT('Vertex',(45.,-20.,100.)) ;
#152=CARTESIAN_POINT('Line Origine',(0.,-20.,100.)) ;
#156=CARTESIAN_POINT('Vertex',(-45.,-20.,100.)) ;
#159=CARTESIAN_POINT('Line Origine',(-45.,-20.,50.)) ;
#171=CARTESIAN_POINT('Axis2P3D Location',(45.,0.,0.)) ;
#176=CARTESIAN_POINT('Line Origine',(45.,0.,100.)) ;
#188=CARTESIAN_POINT('Axis2P3D Location',(-45.,0.,100.)) ;
#193=CARTESIAN_POINT('Line Origine',(-45.,0.,100.)) ;
#205=CARTESIAN_POINT('Axis2P3D Location',(-45.,0.,100.)) ;
#217=CARTESIAN_POINT('Axis2P3D Location',(5.70264852143E-016,0.,-18.9644660941)) ;
#222=CARTESIAN_POINT('Line Origine',(13.1637384284,7.19138307906,-12.5)) ;
#226=CARTESIAN_POINT('Vertex',(13.1637384284,7.19138307906,-25.)) ;
#229=CARTESIAN_POINT('Axis2P3D Location',(7.51754424978E-016,0.,-25.)) ;
#233=CARTESIAN_POINT('Vertex',(-13.1637384284,-7.19138307906,-25.)) ;
#236=CARTESIAN_POINT('Line Origine',(-13.1637384284,-7.19138307906,-12.5)) ;
#248=CARTESIAN_POINT('Axis2P3D Location',(7.51754424978E-016,0.,-25.)) ;
#260=CARTESIAN_POINT('Axis2P3D Location',(1.09649294963E-015,0.,-36.4644660941)) ;
#265=CARTESIAN_POINT('Line Origine',(8.13323066559,4.44320416308,-30.732233047)) ;
#269=CARTESIAN_POINT('Vertex',(3.10272290282,1.69502524711,-36.4644660941)) ;
#272=CARTESIAN_POINT('Axis2P3D Location',(1.09649294963E-015,0.,-36.4644660941)) ;
#276=CARTESIAN_POINT('Vertex',(-3.10272290282,-1.69502524711,-36.4644660941)) ;
#279=CARTESIAN_POINT('Line Origine',(-8.13323066559,-4.44320416308,-30.732233047)) ;
#291=CARTESIAN_POINT('Axis2P3D Location',(1.09649294963E-015,0.,-36.4644660941)) ;
#303=CARTESIAN_POINT('Axis2P3D Location',(2.22044604925E-016,0.,-32.9289321881)) ;
#308=CARTESIAN_POINT('Axis2P3D Location',(2.22044604925E-016,0.,-32.9289321881)) ;
#312=CARTESIAN_POINT('Vertex',(2.58970239121E-015,1.21132028092E-015,-37.9289321881)) ;
#315=CARTESIAN_POINT('Axis2P3D Location',(2.22044604925E-016,0.,-32.9289321881)) ;
#52=DIRECTION('Axis2P3D Direction',(-3.00701769991E-017,0.,1.)) ;
#53=DIRECTION('Axis2P3D XDirection',(1.,0.,3.00701769991E-017)) ;
#57=DIRECTION('Vector Direction',(0.,1.,0.)) ;
#66=DIRECTION('Vector Direction',(-1.,0.,-3.00701769991E-017)) ;
#73=DIRECTION('Vector Direction',(0.,1.,0.)) ;
#80=DIRECTION('Vector Direction',(-1.,0.,-3.00701769991E-017)) ;
#91=DIRECTION('Axis2P3D Direction',(-3.00701769991E-017,0.,1.)) ;
#100=DIRECTION('Axis2P3D Direction',(-3.00701769991E-017,0.,1.)) ;
#110=DIRECTION('Axis2P3D Direction',(0.,1.,-0.)) ;
#111=DIRECTION('Axis2P3D XDirection',(-1.,0.,0.)) ;
#115=DIRECTION('Vector Direction',(0.,0.,-1.)) ;
#122=DIRECTION('Vector Direction',(1.,0.,0.)) ;
#129=DIRECTION('Vector Direction',(0.,0.,1.)) ;
#141=DIRECTION('Axis2P3D Direction',(0.,1.,-0.)) ;
#142=DIRECTION('Axis2P3D XDirection',(-1.,0.,0.)) ;
#146=DIRECTION('Vector Direction',(0.,0.,1.)) ;
#153=DIRECTION('Vector Direction',(1.,0.,0.)) ;
#160=DIRECTION('Vector Direction',(0.,0.,-1.)) ;
#172=DIRECTION('Axis2P3D Direction',(-1.,0.,0.)) ;
#173=DIRECTION('Axis2P3D XDirection',(0.,0.,1.)) ;
#177=DIRECTION('Vector Direction',(0.,1.,0.)) ;
#189=DIRECTION('Axis2P3D Direction',(0.,0.,1.)) ;
#190=DIRECTION('Axis2P3D XDirection',(1.,0.,0.)) ;
#194=DIRECTION('Vector Direction',(0.,1.,0.)) ;
#206=DIRECTION('Axis2P3D Direction',(1.,-0.,0.)) ;
#207=DIRECTION('Axis2P3D XDirection',(0.,0.,-1.)) ;
#218=DIRECTION('Axis2P3D Direction',(-3.00701769991E-017,0.,1.)) ;
#219=DIRECTION('Axis2P3D XDirection',(-0.87758256189,-0.479425538604,-2.63890629674E-017)) ;
#223=DIRECTION('Vector Direction',(0.,0.,1.)) ;
#230=DIRECTION('Axis2P3D Direction',(-3.00701769991E-017,0.,1.)) ;
#237=DIRECTION('Vector Direction',(0.,0.,1.)) ;
#249=DIRECTION('Axis2P3D Direction',(-3.00701769991E-017,0.,1.)) ;
#261=DIRECTION('Axis2P3D Direction',(-3.00701769991E-017,0.,1.)) ;
#262=DIRECTION('Axis2P3D XDirection',(-0.87758256189,-0.479425538604,0.)) ;
#266=DIRECTION('Vector Direction',(0.620544580564,0.339005049421,0.707106781187)) ;
#273=DIRECTION('Axis2P3D Direction',(-3.00701769991E-017,0.,1.)) ;
#280=DIRECTION('Vector Direction',(-0.620544580564,-0.339005049421,0.707106781187)) ;
#292=DIRECTION('Axis2P3D Direction',(-3.00701769991E-017,0.,1.)) ;
#304=DIRECTION('Axis2P3D Direction',(-3.00701769991E-017,0.,1.)) ;
#305=DIRECTION('Axis2P3D XDirection',(-0.87758256189,-0.479425538604,0.)) ;
#309=DIRECTION('Axis2P3D Direction',(0.479425538604,-0.87758256189,1.44164108037E-017)) ;
#316=DIRECTION('Axis2P3D Direction',(-0.479425538604,0.87758256189,-1.44164108037E-017)) ;
#47=AXIS2_PLACEMENT_3D(' ',#46,$,$) ;
#54=AXIS2_PLACEMENT_3D('Plane Axis2P3D',#51,#52,#53) ;
#92=AXIS2_PLACEMENT_3D('Circle Axis2P3D',#90,#91,$) ;
#101=AXIS2_PLACEMENT_3D('Circle Axis2P3D',#99,#100,$) ;
#112=AXIS2_PLACEMENT_3D('Plane Axis2P3D',#109,#110,#111) ;
#143=AXIS2_PLACEMENT_3D('Plane Axis2P3D',#140,#141,#142) ;
#174=AXIS2_PLACEMENT_3D('Plane Axis2P3D',#171,#172,#173) ;
#191=AXIS2_PLACEMENT_3D('Plane Axis2P3D',#188,#189,#190) ;
#208=AXIS2_PLACEMENT_3D('Plane Axis2P3D',#205,#206,#207) ;
#220=AXIS2_PLACEMENT_3D('Cylinder Axis2P3D',#217,#218,#219) ;
#231=AXIS2_PLACEMENT_3D('Circle Axis2P3D',#229,#230,$) ;
#250=AXIS2_PLACEMENT_3D('Circle Axis2P3D',#248,#249,$) ;
#263=AXIS2_PLACEMENT_3D('Cone Axis2P3D',#260,#261,#262) ;
#274=AXIS2_PLACEMENT_3D('Circle Axis2P3D',#272,#273,$) ;
#293=AXIS2_PLACEMENT_3D('Circle Axis2P3D',#291,#292,$) ;
#306=AXIS2_PLACEMENT_3D('Sphere Axis2P3D',#303,#304,#305) ;
#310=AXIS2_PLACEMENT_3D('Circle Axis2P3D',#308,#309,$) ;
#317=AXIS2_PLACEMENT_3D('Circle Axis2P3D',#315,#316,$) ;
#40=PRODUCT_DEFINITION_SHAPE(' ',' ',#14) ;
#31=APPROVAL_PERSON_ORGANIZATION(#25,#21,#19) ;
#25=PERSON_AND_ORGANIZATION(#22,#23) ;
#22=PERSON(' ',' ',' ',$,$,$) ;
#23=ORGANIZATION(' ',' ',' ') ;
#21=APPROVAL(#20,' ') ;
#20=APPROVAL_STATUS('not_yet_approved') ;
#19=APPROVAL_ROLE('APPROVER') ;
#13=DATE_AND_TIME(#11,#12) ;
#12=LOCAL_TIME(15,45,52.,#10) ;
#10=COORDINATED_UNIVERSAL_TIME_OFFSET(0,0,.AHEAD.) ;
#85=ORIENTED_EDGE('',*,*,#64,.F.) ;
#86=ORIENTED_EDGE('',*,*,#71,.T.) ;
#87=ORIENTED_EDGE('',*,*,#78,.T.) ;
#88=ORIENTED_EDGE('',*,*,#83,.F.) ;
#105=ORIENTED_EDGE('',*,*,#98,.T.) ;
#106=ORIENTED_EDGE('',*,*,#103,.T.) ;
#134=ORIENTED_EDGE('',*,*,#120,.T.) ;
#135=ORIENTED_EDGE('',*,*,#127,.T.) ;
#136=ORIENTED_EDGE('',*,*,#132,.T.) ;
#137=ORIENTED_EDGE('',*,*,#83,.T.) ;
#165=ORIENTED_EDGE('',*,*,#71,.F.) ;
#166=ORIENTED_EDGE('',*,*,#151,.F.) ;
#167=ORIENTED_EDGE('',*,*,#158,.F.) ;
#168=ORIENTED_EDGE('',*,*,#163,.F.) ;
#182=ORIENTED_EDGE('',*,*,#180,.F.) ;
#183=ORIENTED_EDGE('',*,*,#151,.T.) ;
#184=ORIENTED_EDGE('',*,*,#64,.T.) ;
#185=ORIENTED_EDGE('',*,*,#132,.F.) ;
#199=ORIENTED_EDGE('',*,*,#197,.F.) ;
#200=ORIENTED_EDGE('',*,*,#158,.T.) ;
#201=ORIENTED_EDGE('',*,*,#180,.T.) ;
#202=ORIENTED_EDGE('',*,*,#127,.F.) ;
#211=ORIENTED_EDGE('',*,*,#78,.F.) ;
#212=ORIENTED_EDGE('',*,*,#163,.T.) ;
#213=ORIENTED_EDGE('',*,*,#197,.T.) ;
#214=ORIENTED_EDGE('',*,*,#120,.F.) ;
#242=ORIENTED_EDGE('',*,*,#103,.F.) ;
#243=ORIENTED_EDGE('',*,*,#228,.T.) ;
#244=ORIENTED_EDGE('',*,*,#235,.T.) ;
#245=ORIENTED_EDGE('',*,*,#240,.F.) ;
#254=ORIENTED_EDGE('',*,*,#98,.F.) ;
#255=ORIENTED_EDGE('',*,*,#240,.T.) ;
#256=ORIENTED_EDGE('',*,*,#252,.T.) ;
#257=ORIENTED_EDGE('',*,*,#228,.F.) ;
#285=ORIENTED_EDGE('',*,*,#235,.F.) ;
#286=ORIENTED_EDGE('',*,*,#271,.T.) ;
#287=ORIENTED_EDGE('',*,*,#278,.T.) ;
#288=ORIENTED_EDGE('',*,*,#283,.F.) ;
#297=ORIENTED_EDGE('',*,*,#252,.F.) ;
#298=ORIENTED_EDGE('',*,*,#283,.T.) ;
#299=ORIENTED_EDGE('',*,*,#295,.T.) ;
#300=ORIENTED_EDGE('',*,*,#271,.F.) ;
#321=ORIENTED_EDGE('',*,*,#278,.F.) ;
#322=ORIENTED_EDGE('',*,*,#314,.T.) ;
#323=ORIENTED_EDGE('',*,*,#319,.F.) ;
#327=ORIENTED_EDGE('',*,*,#295,.F.) ;
#328=ORIENTED_EDGE('',*,*,#319,.T.) ;
#329=ORIENTED_EDGE('',*,*,#314,.F.) ;
#107=FACE_BOUND('',#104,.T.) ;
#50=CLOSED_SHELL('Closed Shell',(#108,#139,#170,#187,#204,#216,#247,#259,#290,#302,#325,#331)) ;
#58=VECTOR('Line Direction',#57,1.) ;
#67=VECTOR('Line Direction',#66,1.) ;
#74=VECTOR('Line Direction',#73,1.) ;
#81=VECTOR('Line Direction',#80,1.) ;
#116=VECTOR('Line Direction',#115,1.) ;
#123=VECTOR('Line Direction',#122,1.) ;
#130=VECTOR('Line Direction',#129,1.) ;
#147=VECTOR('Line Direction',#146,1.) ;
#154=VECTOR('Line Direction',#153,1.) ;
#161=VECTOR('Line Direction',#160,1.) ;
#178=VECTOR('Line Direction',#177,1.) ;
#195=VECTOR('Line Direction',#194,1.) ;
#224=VECTOR('Line Direction',#223,1.) ;
#238=VECTOR('Line Direction',#237,1.) ;
#267=VECTOR('Line Direction',#266,1.) ;
#281=VECTOR('Line Direction',#280,1.) ;
#333=ADVANCED_BREP_SHAPE_REPRESENTATION('NONE',(#332),#45) ;
#48=SHAPE_REPRESENTATION(' ',(#47),#45) ;
#108=ADVANCED_FACE('PartBody',(#89,#107),#55,.F.) ;
#139=ADVANCED_FACE('PartBody',(#138),#113,.T.) ;
#170=ADVANCED_FACE('PartBody',(#169),#144,.F.) ;
#187=ADVANCED_FACE('PartBody',(#186),#175,.F.) ;
#204=ADVANCED_FACE('PartBody',(#203),#192,.T.) ;
#216=ADVANCED_FACE('PartBody',(#215),#209,.F.) ;
#247=ADVANCED_FACE('PartBody',(#246),#221,.T.) ;
#259=ADVANCED_FACE('PartBody',(#258),#221,.T.) ;
#290=ADVANCED_FACE('PartBody',(#289),#264,.T.) ;
#302=ADVANCED_FACE('PartBody',(#301),#264,.T.) ;
#325=ADVANCED_FACE('PartBody',(#324),#307,.T.) ;
#331=ADVANCED_FACE('PartBody',(#330),#307,.T.) ;
#4=APPLICATION_PROTOCOL_DEFINITION('international standard','config_control_design',1994,#1) ;
#32=APPROVAL_DATE_TIME(#13,#21) ;
#332=MANIFOLD_SOLID_BREP('PartBody',#50) ;
#11=CALENDAR_DATE(2020,9,10) ;
#30=CC_DESIGN_APPROVAL(#21,(#16,#6,#14)) ;
#18=CC_DESIGN_DATE_AND_TIME_ASSIGNMENT(#13,#17,(#16)) ;
#29=CC_DESIGN_DATE_AND_TIME_ASSIGNMENT(#13,#28,(#14)) ;
#17=DATE_TIME_ROLE('classification_date') ;
#28=DATE_TIME_ROLE('creation_date') ;
#27=CC_DESIGN_PERSON_AND_ORGANIZATION_ASSIGNMENT(#25,#26,(#16)) ;
#33=CC_DESIGN_PERSON_AND_ORGANIZATION_ASSIGNMENT(#25,#34,(#6)) ;
#35=CC_DESIGN_PERSON_AND_ORGANIZATION_ASSIGNMENT(#25,#36,(#6,#14)) ;
#37=CC_DESIGN_PERSON_AND_ORGANIZATION_ASSIGNMENT(#25,#38,(#5)) ;
#26=PERSON_AND_ORGANIZATION_ROLE('classification_officer') ;
#34=PERSON_AND_ORGANIZATION_ROLE('design_supplier') ;
#36=PERSON_AND_ORGANIZATION_ROLE('creator') ;
#38=PERSON_AND_ORGANIZATION_ROLE('design_owner') ;
#39=CC_DESIGN_SECURITY_CLASSIFICATION(#16,(#6)) ;
#93=CIRCLE('generated circle',#92,15.) ;
#102=CIRCLE('generated circle',#101,15.) ;
#232=CIRCLE('generated circle',#231,15.) ;
#251=CIRCLE('generated circle',#250,15.) ;
#275=CIRCLE('generated circle',#274,3.53553390593) ;
#294=CIRCLE('generated circle',#293,3.53553390593) ;
#311=CIRCLE('generated circle',#310,5.) ;
#318=CIRCLE('generated circle',#317,5.) ;
#264=CONICAL_SURFACE('Cone',#263,3.53553390593,0.785398163397) ;
#334=SHAPE_REPRESENTATION_RELATIONSHIP(' ',' ',#48,#333) ;
#221=CYLINDRICAL_SURFACE('generated cylinder',#220,15.) ;
#3=DESIGN_CONTEXT(' ',#1,'design') ;
#64=EDGE_CURVE('',#61,#63,#59,.T.) ;
#71=EDGE_CURVE('',#61,#70,#68,.T.) ;
#78=EDGE_CURVE('',#70,#77,#75,.T.) ;
#83=EDGE_CURVE('',#63,#77,#82,.T.) ;
#98=EDGE_CURVE('',#95,#97,#93,.T.) ;
#103=EDGE_CURVE('',#97,#95,#102,.T.) ;
#120=EDGE_CURVE('',#77,#119,#117,.F.) ;
#127=EDGE_CURVE('',#119,#126,#124,.T.) ;
#132=EDGE_CURVE('',#126,#63,#131,.F.) ;
#151=EDGE_CURVE('',#150,#61,#148,.F.) ;
#158=EDGE_CURVE('',#157,#150,#155,.T.) ;
#163=EDGE_CURVE('',#70,#157,#162,.F.) ;
#180=EDGE_CURVE('',#150,#126,#179,.T.) ;
#197=EDGE_CURVE('',#157,#119,#196,.T.) ;
#228=EDGE_CURVE('',#97,#227,#225,.F.) ;
#235=EDGE_CURVE('',#227,#234,#232,.T.) ;
#240=EDGE_CURVE('',#95,#234,#239,.F.) ;
#252=EDGE_CURVE('',#234,#227,#251,.T.) ;
#271=EDGE_CURVE('',#227,#270,#268,.F.) ;
#278=EDGE_CURVE('',#270,#277,#275,.T.) ;
#283=EDGE_CURVE('',#234,#277,#282,.F.) ;
#295=EDGE_CURVE('',#277,#270,#294,.T.) ;
#314=EDGE_CURVE('',#270,#313,#311,.F.) ;
#319=EDGE_CURVE('',#277,#313,#318,.F.) ;
#84=EDGE_LOOP('',(#85,#86,#87,#88)) ;
#104=EDGE_LOOP('',(#105,#106)) ;
#133=EDGE_LOOP('',(#134,#135,#136,#137)) ;
#164=EDGE_LOOP('',(#165,#166,#167,#168)) ;
#181=EDGE_LOOP('',(#182,#183,#184,#185)) ;
#198=EDGE_LOOP('',(#199,#200,#201,#202)) ;
#210=EDGE_LOOP('',(#211,#212,#213,#214)) ;
#241=EDGE_LOOP('',(#242,#243,#244,#245)) ;
#253=EDGE_LOOP('',(#254,#255,#256,#257)) ;
#284=EDGE_LOOP('',(#285,#286,#287,#288)) ;
#296=EDGE_LOOP('',(#297,#298,#299,#300)) ;
#320=EDGE_LOOP('',(#321,#322,#323)) ;
#326=EDGE_LOOP('',(#327,#328,#329)) ;
#89=FACE_OUTER_BOUND('',#84,.T.) ;
#138=FACE_OUTER_BOUND('',#133,.T.) ;
#169=FACE_OUTER_BOUND('',#164,.T.) ;
#186=FACE_OUTER_BOUND('',#181,.T.) ;
#203=FACE_OUTER_BOUND('',#198,.T.) ;
#215=FACE_OUTER_BOUND('',#210,.T.) ;
#246=FACE_OUTER_BOUND('',#241,.T.) ;
#258=FACE_OUTER_BOUND('',#253,.T.) ;
#289=FACE_OUTER_BOUND('',#284,.T.) ;
#301=FACE_OUTER_BOUND('',#296,.T.) ;
#324=FACE_OUTER_BOUND('',#320,.T.) ;
#330=FACE_OUTER_BOUND('',#326,.T.) ;
#44=UNCERTAINTY_MEASURE_WITH_UNIT(LENGTH_MEASURE(0.005),#41,'distance_accuracy_value','CONFUSED CURVE UNCERTAINTY') ;
#59=LINE('Line',#56,#58) ;
#68=LINE('Line',#65,#67) ;
#75=LINE('Line',#72,#74) ;
#82=LINE('Line',#79,#81) ;
#117=LINE('Line',#114,#116) ;
#124=LINE('Line',#121,#123) ;
#131=LINE('Line',#128,#130) ;
#148=LINE('Line',#145,#147) ;
#155=LINE('Line',#152,#154) ;
#162=LINE('Line',#159,#161) ;
#179=LINE('Line',#176,#178) ;
#196=LINE('Line',#193,#195) ;
#225=LINE('Line',#222,#224) ;
#239=LINE('Line',#236,#238) ;
#268=LINE('Line',#265,#267) ;
#282=LINE('Line',#279,#281) ;
#2=MECHANICAL_CONTEXT(' ',#1,'mechanical') ;
#24=PERSONAL_ADDRESS(' ',' ',' ',' ',' ',' ',' ',' ',' ',' ',' ',' ',(#22),' ') ;
#55=PLANE('',#54) ;
#113=PLANE('',#112) ;
#144=PLANE('',#143) ;
#175=PLANE('',#174) ;
#192=PLANE('',#191) ;
#209=PLANE('',#208) ;
#7=PRODUCT_CATEGORY('part',$) ;
#9=PRODUCT_CATEGORY_RELATIONSHIP(' ',' ',#7,#8) ;
#6=PRODUCT_DEFINITION_FORMATION_WITH_SPECIFIED_SOURCE('',' ',#5,.NOT_KNOWN.) ;
#8=PRODUCT_RELATED_PRODUCT_CATEGORY('detail',$,(#5)) ;
#49=SHAPE_DEFINITION_REPRESENTATION(#40,#48) ;
#307=SPHERICAL_SURFACE('',#306,5.) ;
#61=VERTEX_POINT('',#60) ;
#63=VERTEX_POINT('',#62) ;
#70=VERTEX_POINT('',#69) ;
#77=VERTEX_POINT('',#76) ;
#95=VERTEX_POINT('',#94) ;
#97=VERTEX_POINT('',#96) ;
#119=VERTEX_POINT('',#118) ;
#126=VERTEX_POINT('',#125) ;
#150=VERTEX_POINT('',#149) ;
#157=VERTEX_POINT('',#156) ;
#227=VERTEX_POINT('',#226) ;
#234=VERTEX_POINT('',#233) ;
#270=VERTEX_POINT('',#269) ;
#277=VERTEX_POINT('',#276) ;
#313=VERTEX_POINT('',#312) ;
#41=(LENGTH_UNIT()NAMED_UNIT(*)SI_UNIT(.MILLI.,.METRE.)) ;
#42=(NAMED_UNIT(*)PLANE_ANGLE_UNIT()SI_UNIT($,.RADIAN.)) ;
#43=(NAMED_UNIT(*)SI_UNIT($,.STERADIAN.)SOLID_ANGLE_UNIT()) ;
#45=(GEOMETRIC_REPRESENTATION_CONTEXT(3)GLOBAL_UNCERTAINTY_ASSIGNED_CONTEXT((#44))GLOBAL_UNIT_ASSIGNED_CONTEXT((#41,#42,#43))REPRESENTATION_CONTEXT(' ',' ')) ;
ENDSEC;
END-ISO-10303-21;
