ISO-10303-21;
HEADER;
/* Generated by software containing ST-Developer
 * from STEP Tools, Inc. (www.steptools.com) 
 */

FILE_DESCRIPTION(
/* description */ (''),
/* implementation_level */ '2;1');

FILE_NAME(
/* name */ 
'C:/Users/ced0w/OneDrive/Documents/Saint-Luc/DI 5eme/Stage/Wireless/Co
mmandes/PUNCH.step',
/* time_stamp */ '2020-10-12T11:39:00+02:00',
/* author */ (''),
/* organization */ (''),
/* preprocessor_version */ 'ST-DEVELOPER v18.1',
/* originating_system */ 'Autodesk Translation Framework v9.3.0.1241',
/* authorisation */ '');

FILE_SCHEMA (('AUTOMOTIVE_DESIGN { 1 0 10303 214 3 1 1 }'));
ENDSEC;

DATA;
#10=MECHANICAL_DESIGN_GEOMETRIC_PRESENTATION_REPRESENTATION('',(#13),#455);
#11=SHAPE_REPRESENTATION_RELATIONSHIP('SRR','None',#461,#12);
#12=ADVANCED_BREP_SHAPE_REPRESENTATION('',(#14),#454);
#13=STYLED_ITEM('',(#470),#14);
#14=MANIFOLD_SOLID_BREP('Punch',#231);
#15=CONICAL_SURFACE('',#248,0.4375,0.0249947936189202);
#16=CONICAL_SURFACE('',#250,0.875,0.982793723247331);
#17=FACE_BOUND('',#49,.T.);
#18=FACE_BOUND('',#52,.T.);
#19=FACE_BOUND('',#56,.T.);
#20=FACE_BOUND('',#58,.T.);
#21=FACE_BOUND('',#61,.T.);
#22=PLANE('',#236);
#23=PLANE('',#241);
#24=PLANE('',#242);
#25=PLANE('',#246);
#26=PLANE('',#254);
#27=PLANE('',#258);
#28=PLANE('',#262);
#29=FACE_OUTER_BOUND('',#44,.T.);
#30=FACE_OUTER_BOUND('',#45,.T.);
#31=FACE_OUTER_BOUND('',#46,.T.);
#32=FACE_OUTER_BOUND('',#47,.T.);
#33=FACE_OUTER_BOUND('',#48,.T.);
#34=FACE_OUTER_BOUND('',#50,.T.);
#35=FACE_OUTER_BOUND('',#51,.T.);
#36=FACE_OUTER_BOUND('',#53,.T.);
#37=FACE_OUTER_BOUND('',#54,.T.);
#38=FACE_OUTER_BOUND('',#55,.T.);
#39=FACE_OUTER_BOUND('',#57,.T.);
#40=FACE_OUTER_BOUND('',#59,.T.);
#41=FACE_OUTER_BOUND('',#60,.T.);
#42=FACE_OUTER_BOUND('',#62,.T.);
#43=FACE_OUTER_BOUND('',#63,.T.);
#44=EDGE_LOOP('',(#152,#153,#154,#155,#156,#157,#158));
#45=EDGE_LOOP('',(#159,#160,#161,#162,#163));
#46=EDGE_LOOP('',(#164,#165,#166,#167,#168,#169,#170,#171));
#47=EDGE_LOOP('',(#172,#173,#174));
#48=EDGE_LOOP('',(#175));
#49=EDGE_LOOP('',(#176));
#50=EDGE_LOOP('',(#177,#178,#179,#180));
#51=EDGE_LOOP('',(#181));
#52=EDGE_LOOP('',(#182));
#53=EDGE_LOOP('',(#183,#184,#185,#186));
#54=EDGE_LOOP('',(#187,#188,#189,#190));
#55=EDGE_LOOP('',(#191,#192,#193,#194));
#56=EDGE_LOOP('',(#195,#196));
#57=EDGE_LOOP('',(#197));
#58=EDGE_LOOP('',(#198));
#59=EDGE_LOOP('',(#199,#200,#201,#202));
#60=EDGE_LOOP('',(#203));
#61=EDGE_LOOP('',(#204));
#62=EDGE_LOOP('',(#205,#206,#207,#208));
#63=EDGE_LOOP('',(#209));
#64=LINE('',#361,#75);
#65=LINE('',#403,#76);
#66=LINE('',#405,#77);
#67=LINE('',#406,#78);
#68=LINE('',#411,#79);
#69=LINE('',#421,#80);
#70=LINE('',#428,#81);
#71=LINE('',#432,#82);
#72=LINE('',#436,#83);
#73=LINE('',#443,#84);
#74=LINE('',#450,#85);
#75=VECTOR('',#269,0.500000000000003);
#76=VECTOR('',#274,10.);
#77=VECTOR('',#275,10.);
#78=VECTOR('',#276,10.);
#79=VECTOR('',#281,0.25);
#80=VECTOR('',#296,0.505892880934642);
#81=VECTOR('',#305,0.4375);
#82=VECTOR('',#310,0.875);
#83=VECTOR('',#315,1.25);
#84=VECTOR('',#324,1.00000001490116);
#85=VECTOR('',#333,1.25);
#86=CIRCLE('',#234,0.500000000000003);
#87=CIRCLE('',#235,0.500000000000003);
#88=CIRCLE('',#238,0.25);
#89=CIRCLE('',#239,0.25);
#90=CIRCLE('',#240,0.25);
#91=CIRCLE('',#243,0.505892880934642);
#92=CIRCLE('',#245,0.505892880934642);
#93=CIRCLE('',#247,0.375);
#94=CIRCLE('',#249,0.5);
#95=CIRCLE('',#251,1.25);
#96=CIRCLE('',#253,1.25);
#97=CIRCLE('',#255,1.00000001490116);
#98=CIRCLE('',#257,1.00000001490116);
#99=CIRCLE('',#259,1.25);
#100=CIRCLE('',#261,1.25);
#101=B_SPLINE_CURVE_WITH_KNOTS('',3,(#340,#341,#342,#343,#344,#345,#346,
#347,#348,#349,#350,#351,#352,#353,#354,#355,#356,#357),.UNSPECIFIED.,.F.,
 .F.,(4,2,2,2,2,2,2,2,4),(0.,0.00962288002203686,0.0192457600440737,0.0288424076272254,
0.038439055210377,0.0480357027935287,0.0576323503766803,0.0672552303987172,
0.076878110420754),.UNSPECIFIED.);
#102=B_SPLINE_CURVE_WITH_KNOTS('',3,(#363,#364,#365,#366,#367,#368,#369,
#370,#371,#372,#373,#374,#375,#376,#377,#378,#379,#380),.UNSPECIFIED.,.F.,
 .F.,(4,2,2,2,2,2,2,2,4),(0.0762729335551941,0.0953315170701583,0.114390100585123,
0.133467983847755,0.152545867110388,0.171623750373021,0.190701633635654,
0.209760217150618,0.228818800665582),.UNSPECIFIED.);
#103=B_SPLINE_CURVE_WITH_KNOTS('',3,(#381,#382,#383,#384,#385,#386,#387,
#388,#389,#390,#391,#392,#393,#394,#395,#396,#397,#398,#399),
 .UNSPECIFIED.,.F.,.F.,(4,2,2,2,3,2,2,2,4),(0.228818800665582,0.247877384180546,
0.266935967695511,0.286013850958143,0.305091734220776,0.324169617483409,
0.343247500746042,0.362306084261006,0.38136466777597),.UNSPECIFIED.);
#104=VERTEX_POINT('',#338);
#105=VERTEX_POINT('',#339);
#106=VERTEX_POINT('',#358);
#107=VERTEX_POINT('',#360);
#108=VERTEX_POINT('',#362);
#109=VERTEX_POINT('',#402);
#110=VERTEX_POINT('',#404);
#111=VERTEX_POINT('',#408);
#112=VERTEX_POINT('',#410);
#113=VERTEX_POINT('',#416);
#114=VERTEX_POINT('',#419);
#115=VERTEX_POINT('',#423);
#116=VERTEX_POINT('',#426);
#117=VERTEX_POINT('',#430);
#118=VERTEX_POINT('',#434);
#119=VERTEX_POINT('',#438);
#120=VERTEX_POINT('',#441);
#121=VERTEX_POINT('',#445);
#122=VERTEX_POINT('',#448);
#123=EDGE_CURVE('',#104,#105,#101,.T.);
#124=EDGE_CURVE('',#106,#104,#86,.T.);
#125=EDGE_CURVE('',#106,#107,#64,.T.);
#126=EDGE_CURVE('',#108,#107,#102,.T.);
#127=EDGE_CURVE('',#107,#108,#103,.T.);
#128=EDGE_CURVE('',#105,#106,#87,.T.);
#129=EDGE_CURVE('',#109,#104,#65,.T.);
#130=EDGE_CURVE('',#110,#109,#66,.T.);
#131=EDGE_CURVE('',#105,#110,#67,.T.);
#132=EDGE_CURVE('',#110,#111,#88,.T.);
#133=EDGE_CURVE('',#111,#112,#68,.T.);
#134=EDGE_CURVE('',#112,#112,#89,.T.);
#135=EDGE_CURVE('',#111,#109,#90,.T.);
#136=EDGE_CURVE('',#113,#113,#91,.T.);
#137=EDGE_CURVE('',#114,#114,#92,.T.);
#138=EDGE_CURVE('',#114,#113,#69,.T.);
#139=EDGE_CURVE('',#115,#115,#93,.T.);
#140=EDGE_CURVE('',#116,#116,#94,.T.);
#141=EDGE_CURVE('',#116,#115,#70,.T.);
#142=EDGE_CURVE('',#117,#117,#95,.T.);
#143=EDGE_CURVE('',#117,#116,#71,.T.);
#144=EDGE_CURVE('',#118,#118,#96,.T.);
#145=EDGE_CURVE('',#118,#117,#72,.T.);
#146=EDGE_CURVE('',#119,#119,#97,.T.);
#147=EDGE_CURVE('',#120,#120,#98,.T.);
#148=EDGE_CURVE('',#120,#119,#73,.T.);
#149=EDGE_CURVE('',#121,#121,#99,.T.);
#150=EDGE_CURVE('',#122,#122,#100,.T.);
#151=EDGE_CURVE('',#122,#121,#74,.T.);
#152=ORIENTED_EDGE('',*,*,#123,.F.);
#153=ORIENTED_EDGE('',*,*,#124,.F.);
#154=ORIENTED_EDGE('',*,*,#125,.T.);
#155=ORIENTED_EDGE('',*,*,#126,.F.);
#156=ORIENTED_EDGE('',*,*,#127,.F.);
#157=ORIENTED_EDGE('',*,*,#125,.F.);
#158=ORIENTED_EDGE('',*,*,#128,.F.);
#159=ORIENTED_EDGE('',*,*,#129,.F.);
#160=ORIENTED_EDGE('',*,*,#130,.F.);
#161=ORIENTED_EDGE('',*,*,#131,.F.);
#162=ORIENTED_EDGE('',*,*,#128,.T.);
#163=ORIENTED_EDGE('',*,*,#124,.T.);
#164=ORIENTED_EDGE('',*,*,#129,.T.);
#165=ORIENTED_EDGE('',*,*,#123,.T.);
#166=ORIENTED_EDGE('',*,*,#131,.T.);
#167=ORIENTED_EDGE('',*,*,#132,.T.);
#168=ORIENTED_EDGE('',*,*,#133,.T.);
#169=ORIENTED_EDGE('',*,*,#134,.F.);
#170=ORIENTED_EDGE('',*,*,#133,.F.);
#171=ORIENTED_EDGE('',*,*,#135,.T.);
#172=ORIENTED_EDGE('',*,*,#130,.T.);
#173=ORIENTED_EDGE('',*,*,#135,.F.);
#174=ORIENTED_EDGE('',*,*,#132,.F.);
#175=ORIENTED_EDGE('',*,*,#136,.F.);
#176=ORIENTED_EDGE('',*,*,#134,.T.);
#177=ORIENTED_EDGE('',*,*,#137,.F.);
#178=ORIENTED_EDGE('',*,*,#138,.T.);
#179=ORIENTED_EDGE('',*,*,#136,.T.);
#180=ORIENTED_EDGE('',*,*,#138,.F.);
#181=ORIENTED_EDGE('',*,*,#137,.T.);
#182=ORIENTED_EDGE('',*,*,#139,.F.);
#183=ORIENTED_EDGE('',*,*,#140,.F.);
#184=ORIENTED_EDGE('',*,*,#141,.T.);
#185=ORIENTED_EDGE('',*,*,#139,.T.);
#186=ORIENTED_EDGE('',*,*,#141,.F.);
#187=ORIENTED_EDGE('',*,*,#142,.F.);
#188=ORIENTED_EDGE('',*,*,#143,.T.);
#189=ORIENTED_EDGE('',*,*,#140,.T.);
#190=ORIENTED_EDGE('',*,*,#143,.F.);
#191=ORIENTED_EDGE('',*,*,#144,.F.);
#192=ORIENTED_EDGE('',*,*,#145,.T.);
#193=ORIENTED_EDGE('',*,*,#142,.T.);
#194=ORIENTED_EDGE('',*,*,#145,.F.);
#195=ORIENTED_EDGE('',*,*,#126,.T.);
#196=ORIENTED_EDGE('',*,*,#127,.T.);
#197=ORIENTED_EDGE('',*,*,#144,.T.);
#198=ORIENTED_EDGE('',*,*,#146,.F.);
#199=ORIENTED_EDGE('',*,*,#147,.F.);
#200=ORIENTED_EDGE('',*,*,#148,.T.);
#201=ORIENTED_EDGE('',*,*,#146,.T.);
#202=ORIENTED_EDGE('',*,*,#148,.F.);
#203=ORIENTED_EDGE('',*,*,#149,.F.);
#204=ORIENTED_EDGE('',*,*,#147,.T.);
#205=ORIENTED_EDGE('',*,*,#150,.F.);
#206=ORIENTED_EDGE('',*,*,#151,.T.);
#207=ORIENTED_EDGE('',*,*,#149,.T.);
#208=ORIENTED_EDGE('',*,*,#151,.F.);
#209=ORIENTED_EDGE('',*,*,#150,.T.);
#210=CYLINDRICAL_SURFACE('',#233,0.500000000000003);
#211=CYLINDRICAL_SURFACE('',#237,0.25);
#212=CYLINDRICAL_SURFACE('',#244,0.505892880934642);
#213=CYLINDRICAL_SURFACE('',#252,1.25);
#214=CYLINDRICAL_SURFACE('',#256,1.00000001490116);
#215=CYLINDRICAL_SURFACE('',#260,1.25);
#216=ADVANCED_FACE('',(#29),#210,.F.);
#217=ADVANCED_FACE('',(#30),#22,.F.);
#218=ADVANCED_FACE('',(#31),#211,.F.);
#219=ADVANCED_FACE('',(#32),#23,.T.);
#220=ADVANCED_FACE('',(#33,#17),#24,.T.);
#221=ADVANCED_FACE('',(#34),#212,.T.);
#222=ADVANCED_FACE('',(#35,#18),#25,.T.);
#223=ADVANCED_FACE('',(#36),#15,.T.);
#224=ADVANCED_FACE('',(#37),#16,.T.);
#225=ADVANCED_FACE('',(#38,#19),#213,.T.);
#226=ADVANCED_FACE('',(#39,#20),#26,.T.);
#227=ADVANCED_FACE('',(#40),#214,.T.);
#228=ADVANCED_FACE('',(#41,#21),#27,.T.);
#229=ADVANCED_FACE('',(#42),#215,.T.);
#230=ADVANCED_FACE('',(#43),#28,.T.);
#231=CLOSED_SHELL('',(#216,#217,#218,#219,#220,#221,#222,#223,#224,#225,
#226,#227,#228,#229,#230));
#232=AXIS2_PLACEMENT_3D('placement',#336,#263,#264);
#233=AXIS2_PLACEMENT_3D('',#337,#265,#266);
#234=AXIS2_PLACEMENT_3D('',#359,#267,#268);
#235=AXIS2_PLACEMENT_3D('',#400,#270,#271);
#236=AXIS2_PLACEMENT_3D('',#401,#272,#273);
#237=AXIS2_PLACEMENT_3D('',#407,#277,#278);
#238=AXIS2_PLACEMENT_3D('',#409,#279,#280);
#239=AXIS2_PLACEMENT_3D('',#412,#282,#283);
#240=AXIS2_PLACEMENT_3D('',#413,#284,#285);
#241=AXIS2_PLACEMENT_3D('',#414,#286,#287);
#242=AXIS2_PLACEMENT_3D('',#415,#288,#289);
#243=AXIS2_PLACEMENT_3D('',#417,#290,#291);
#244=AXIS2_PLACEMENT_3D('',#418,#292,#293);
#245=AXIS2_PLACEMENT_3D('',#420,#294,#295);
#246=AXIS2_PLACEMENT_3D('',#422,#297,#298);
#247=AXIS2_PLACEMENT_3D('',#424,#299,#300);
#248=AXIS2_PLACEMENT_3D('',#425,#301,#302);
#249=AXIS2_PLACEMENT_3D('',#427,#303,#304);
#250=AXIS2_PLACEMENT_3D('',#429,#306,#307);
#251=AXIS2_PLACEMENT_3D('',#431,#308,#309);
#252=AXIS2_PLACEMENT_3D('',#433,#311,#312);
#253=AXIS2_PLACEMENT_3D('',#435,#313,#314);
#254=AXIS2_PLACEMENT_3D('',#437,#316,#317);
#255=AXIS2_PLACEMENT_3D('',#439,#318,#319);
#256=AXIS2_PLACEMENT_3D('',#440,#320,#321);
#257=AXIS2_PLACEMENT_3D('',#442,#322,#323);
#258=AXIS2_PLACEMENT_3D('',#444,#325,#326);
#259=AXIS2_PLACEMENT_3D('',#446,#327,#328);
#260=AXIS2_PLACEMENT_3D('',#447,#329,#330);
#261=AXIS2_PLACEMENT_3D('',#449,#331,#332);
#262=AXIS2_PLACEMENT_3D('',#451,#334,#335);
#263=DIRECTION('axis',(0.,0.,1.));
#264=DIRECTION('refdir',(1.,0.,0.));
#265=DIRECTION('center_axis',(0.,1.,1.16960649438786E-16));
#266=DIRECTION('ref_axis',(-1.,0.,0.));
#267=DIRECTION('center_axis',(0.,1.,1.16960649438786E-16));
#268=DIRECTION('ref_axis',(1.,0.,0.));
#269=DIRECTION('',(0.,1.,1.16960649438786E-16));
#270=DIRECTION('center_axis',(0.,1.,1.16960649438786E-16));
#271=DIRECTION('ref_axis',(1.,0.,0.));
#272=DIRECTION('center_axis',(0.,-1.,-1.16960649438786E-16));
#273=DIRECTION('ref_axis',(0.,1.16960649438786E-16,-1.));
#274=DIRECTION('',(-1.,0.,0.));
#275=DIRECTION('',(0.,1.16960649438786E-16,-1.));
#276=DIRECTION('',(1.,0.,0.));
#277=DIRECTION('center_axis',(1.,0.,0.));
#278=DIRECTION('ref_axis',(0.,1.,0.));
#279=DIRECTION('center_axis',(1.,0.,0.));
#280=DIRECTION('ref_axis',(0.,0.,-1.));
#281=DIRECTION('',(-1.,0.,0.));
#282=DIRECTION('center_axis',(1.,0.,0.));
#283=DIRECTION('ref_axis',(0.,0.,-1.));
#284=DIRECTION('center_axis',(1.,0.,0.));
#285=DIRECTION('ref_axis',(0.,0.,-1.));
#286=DIRECTION('center_axis',(-1.,0.,0.));
#287=DIRECTION('ref_axis',(0.,0.,1.));
#288=DIRECTION('center_axis',(-1.,0.,0.));
#289=DIRECTION('ref_axis',(0.,0.,1.));
#290=DIRECTION('center_axis',(1.,0.,0.));
#291=DIRECTION('ref_axis',(0.,0.,-1.));
#292=DIRECTION('center_axis',(1.,0.,0.));
#293=DIRECTION('ref_axis',(0.,1.,0.));
#294=DIRECTION('center_axis',(1.,0.,0.));
#295=DIRECTION('ref_axis',(0.,0.,-1.));
#296=DIRECTION('',(-1.,0.,0.));
#297=DIRECTION('center_axis',(1.,0.,0.));
#298=DIRECTION('ref_axis',(0.,0.,-1.));
#299=DIRECTION('center_axis',(1.,0.,0.));
#300=DIRECTION('ref_axis',(0.,0.,-1.));
#301=DIRECTION('center_axis',(1.,0.,0.));
#302=DIRECTION('ref_axis',(0.,1.,0.));
#303=DIRECTION('center_axis',(1.,0.,0.));
#304=DIRECTION('ref_axis',(0.,0.,-1.));
#305=DIRECTION('',(-0.999687646408123,0.0249921911602031,3.06066069080215E-18));
#306=DIRECTION('center_axis',(1.,0.,0.));
#307=DIRECTION('ref_axis',(0.,1.,0.));
#308=DIRECTION('center_axis',(1.,0.,0.));
#309=DIRECTION('ref_axis',(0.,0.,-1.));
#310=DIRECTION('',(-0.554700196225228,0.832050294337845,1.01896772969045E-16));
#311=DIRECTION('center_axis',(1.,0.,0.));
#312=DIRECTION('ref_axis',(0.,1.,0.));
#313=DIRECTION('center_axis',(1.,0.,0.));
#314=DIRECTION('ref_axis',(0.,0.,-1.));
#315=DIRECTION('',(-1.,0.,0.));
#316=DIRECTION('center_axis',(1.,0.,0.));
#317=DIRECTION('ref_axis',(0.,0.,-1.));
#318=DIRECTION('center_axis',(1.,0.,0.));
#319=DIRECTION('ref_axis',(0.,0.,-1.));
#320=DIRECTION('center_axis',(1.,0.,0.));
#321=DIRECTION('ref_axis',(0.,1.,0.));
#322=DIRECTION('center_axis',(1.,0.,0.));
#323=DIRECTION('ref_axis',(0.,0.,-1.));
#324=DIRECTION('',(-1.,0.,0.));
#325=DIRECTION('center_axis',(-1.,0.,0.));
#326=DIRECTION('ref_axis',(0.,0.,1.));
#327=DIRECTION('center_axis',(1.,0.,0.));
#328=DIRECTION('ref_axis',(0.,0.,-1.));
#329=DIRECTION('center_axis',(1.,0.,0.));
#330=DIRECTION('ref_axis',(0.,1.,0.));
#331=DIRECTION('center_axis',(1.,0.,0.));
#332=DIRECTION('ref_axis',(0.,0.,-1.));
#333=DIRECTION('',(-1.,0.,0.));
#334=DIRECTION('center_axis',(1.,0.,0.));
#335=DIRECTION('ref_axis',(0.,0.,-1.));
#336=CARTESIAN_POINT('',(0.,0.,0.));
#337=CARTESIAN_POINT('Origin',(-25.9600000149012,0.625,7.31004058992413E-17));
#338=CARTESIAN_POINT('',(-26.3930127167934,2.92401623596965E-17,-0.25));
#339=CARTESIAN_POINT('',(-26.3930127167934,-2.92401623596965E-17,0.25));
#340=CARTESIAN_POINT('Ctrl Pts',(-26.3930127167934,0.,-0.25));
#341=CARTESIAN_POINT('Ctrl Pts',(-26.3930127167934,0.0320762667401229,-0.25));
#342=CARTESIAN_POINT('Ctrl Pts',(-26.3969563738894,0.0657846503158212,-0.24347139611919));
#343=CARTESIAN_POINT('Ctrl Pts',(-26.4102990180163,0.127145589876955,-0.217807177434057));
#344=CARTESIAN_POINT('Ctrl Pts',(-26.4194251317884,0.154864433560515,-0.198688957032759));
#345=CARTESIAN_POINT('Ctrl Pts',(-26.4359666674188,0.198629223141708,-0.154924167451566));
#346=CARTESIAN_POINT('Ctrl Pts',(-26.444566225161,0.217791269981145,-0.127185189528593));
#347=CARTESIAN_POINT('Ctrl Pts',(-26.4566480069888,0.243490976467282,-0.0657362688722135));
#348=CARTESIAN_POINT('Ctrl Pts',(-26.4600000149012,0.25,-0.0319888252771722));
#349=CARTESIAN_POINT('Ctrl Pts',(-26.4600000149012,0.25,0.0319888252771721));
#350=CARTESIAN_POINT('Ctrl Pts',(-26.4566480069888,0.243490976467282,0.0657362688722135));
#351=CARTESIAN_POINT('Ctrl Pts',(-26.444566225161,0.217791269981145,0.127185189528593));
#352=CARTESIAN_POINT('Ctrl Pts',(-26.4359666674188,0.198629223141708,0.154924167451566));
#353=CARTESIAN_POINT('Ctrl Pts',(-26.4194251317884,0.154864433560515,0.198688957032759));
#354=CARTESIAN_POINT('Ctrl Pts',(-26.4102990180163,0.127145589876955,0.217807177434057));
#355=CARTESIAN_POINT('Ctrl Pts',(-26.3969563738894,0.0657846503158212,0.24347139611919));
#356=CARTESIAN_POINT('Ctrl Pts',(-26.3930127167934,0.0320762667401229,0.25));
#357=CARTESIAN_POINT('Ctrl Pts',(-26.3930127167934,-6.50521303491303E-18,
0.25));
#358=CARTESIAN_POINT('',(-25.4600000149012,0.,-6.1232339957368E-17));
#359=CARTESIAN_POINT('Origin',(-25.9600000149012,0.,0.));
#360=CARTESIAN_POINT('',(-25.4600000149012,1.25,1.46200811798483E-16));
#361=CARTESIAN_POINT('',(-25.4600000149012,0.625,1.18680659418733E-17));
#362=CARTESIAN_POINT('',(-26.4600000149012,1.25,1.46200811798483E-16));
#363=CARTESIAN_POINT('Ctrl Pts',(-26.4600000149012,1.25,1.73472347597681E-17));
#364=CARTESIAN_POINT('Ctrl Pts',(-26.4600000149012,1.25,-0.0635286117165476));
#365=CARTESIAN_POINT('Ctrl Pts',(-26.447159656815,1.24469252213519,-0.130822076923525));
#366=CARTESIAN_POINT('Ctrl Pts',(-26.3959057330833,1.22554019139791,-0.253821057671281));
#367=CARTESIAN_POINT('Ctrl Pts',(-26.3575290956663,1.21192560439259,-0.309577700421381));
#368=CARTESIAN_POINT('Ctrl Pts',(-26.2695331831713,1.18597702544878,-0.397573612916429));
#369=CARTESIAN_POINT('Ctrl Pts',(-26.2137933960369,1.17185171216983,-0.435916477785056));
#370=CARTESIAN_POINT('Ctrl Pts',(-26.0908601644291,1.15149895844636,-0.487144550180164));
#371=CARTESIAN_POINT('Ctrl Pts',(-26.0235929591099,1.14564392373896,-0.500000000000003));
#372=CARTESIAN_POINT('Ctrl Pts',(-25.8964070706924,1.14564392373896,-0.500000000000003));
#373=CARTESIAN_POINT('Ctrl Pts',(-25.8291398653732,1.15149895844636,-0.487144550180167));
#374=CARTESIAN_POINT('Ctrl Pts',(-25.7062066337655,1.17185171216983,-0.435916477785061));
#375=CARTESIAN_POINT('Ctrl Pts',(-25.650466846631,1.18597702544878,-0.397573612916429));
#376=CARTESIAN_POINT('Ctrl Pts',(-25.562470934136,1.21192560439259,-0.309577700421381));
#377=CARTESIAN_POINT('Ctrl Pts',(-25.524094296719,1.22554019139791,-0.253821057671281));
#378=CARTESIAN_POINT('Ctrl Pts',(-25.4728403729874,1.24469252213519,-0.130822076923525));
#379=CARTESIAN_POINT('Ctrl Pts',(-25.4600000149012,1.25,-0.0635286117165474));
#380=CARTESIAN_POINT('Ctrl Pts',(-25.4600000149012,1.25,2.12503625807159E-16));
#381=CARTESIAN_POINT('Ctrl Pts',(-25.4600000149012,1.25,2.12503625807159E-16));
#382=CARTESIAN_POINT('Ctrl Pts',(-25.4600000149012,1.25,0.0635286117165478));
#383=CARTESIAN_POINT('Ctrl Pts',(-25.4728403729874,1.24469252213519,0.130822076923525));
#384=CARTESIAN_POINT('Ctrl Pts',(-25.524094296719,1.22554019139791,0.253821057671281));
#385=CARTESIAN_POINT('Ctrl Pts',(-25.562470934136,1.21192560439259,0.309577700421381));
#386=CARTESIAN_POINT('Ctrl Pts',(-25.650466846631,1.18597702544878,0.397573612916429));
#387=CARTESIAN_POINT('Ctrl Pts',(-25.7062066337655,1.17185171216983,0.435916477785062));
#388=CARTESIAN_POINT('Ctrl Pts',(-25.8291398653732,1.15149895844636,0.487144550180167));
#389=CARTESIAN_POINT('Ctrl Pts',(-25.8964070706924,1.14564392373896,0.500000000000003));
#390=CARTESIAN_POINT('Ctrl Pts',(-25.9600000149012,1.14564392373896,0.500000000000003));
#391=CARTESIAN_POINT('Ctrl Pts',(-26.0235929591099,1.14564392373896,0.500000000000003));
#392=CARTESIAN_POINT('Ctrl Pts',(-26.0908601644291,1.15149895844636,0.487144550180167));
#393=CARTESIAN_POINT('Ctrl Pts',(-26.2137933960369,1.17185171216983,0.435916477785061));
#394=CARTESIAN_POINT('Ctrl Pts',(-26.2695331831713,1.18597702544878,0.397573612916429));
#395=CARTESIAN_POINT('Ctrl Pts',(-26.3575290956663,1.21192560439259,0.309577700421381));
#396=CARTESIAN_POINT('Ctrl Pts',(-26.3959057330833,1.22554019139791,0.253821057671281));
#397=CARTESIAN_POINT('Ctrl Pts',(-26.447159656815,1.24469252213519,0.130822076923525));
#398=CARTESIAN_POINT('Ctrl Pts',(-26.4600000149012,1.25,0.0635286117165476));
#399=CARTESIAN_POINT('Ctrl Pts',(-26.4600000149012,1.25,1.73472347597681E-17));
#400=CARTESIAN_POINT('Origin',(-25.9600000149012,0.,0.));
#401=CARTESIAN_POINT('Origin',(-26.4600000149012,0.,0.));
#402=CARTESIAN_POINT('',(-26.3600000149012,2.92401623596965E-17,-0.25));
#403=CARTESIAN_POINT('',(-29.2350000149012,2.92401623596965E-17,-0.25));
#404=CARTESIAN_POINT('',(-26.3600000149012,-2.92401623596965E-17,0.25));
#405=CARTESIAN_POINT('',(-26.3600000149012,0.,0.));
#406=CARTESIAN_POINT('',(-29.2350000149012,-2.92401623596965E-17,0.25));
#407=CARTESIAN_POINT('Origin',(-29.2350000149012,0.,0.));
#408=CARTESIAN_POINT('',(-26.3600000149012,-0.25,-3.06161699786838E-17));
#409=CARTESIAN_POINT('Origin',(-26.3600000149012,0.,0.));
#410=CARTESIAN_POINT('',(-32.1100000149012,-0.25,-3.06161699786838E-17));
#411=CARTESIAN_POINT('',(-29.2350000149012,-0.25,-3.06161699786838E-17));
#412=CARTESIAN_POINT('Origin',(-32.1100000149012,0.,0.));
#413=CARTESIAN_POINT('Origin',(-26.3600000149012,0.,0.));
#414=CARTESIAN_POINT('Origin',(-26.3600000149012,0.25,2.92401623596965E-17));
#415=CARTESIAN_POINT('Origin',(-32.1100000149012,0.505892880934642,0.));
#416=CARTESIAN_POINT('',(-32.1100000149012,-0.505892880934642,-6.19540097348042E-17));
#417=CARTESIAN_POINT('Origin',(-32.1100000149012,0.,0.));
#418=CARTESIAN_POINT('Origin',(-32.0850000149012,0.,0.));
#419=CARTESIAN_POINT('',(-32.0600000149012,-0.505892880934642,-6.19540097348042E-17));
#420=CARTESIAN_POINT('Origin',(-32.0600000149012,0.,0.));
#421=CARTESIAN_POINT('',(-32.0850000149012,-0.505892880934642,-6.19540097348042E-17));
#422=CARTESIAN_POINT('Origin',(-32.0600000149012,0.375,2.62399345168282E-19));
#423=CARTESIAN_POINT('',(-32.0600000149012,-0.375,-4.59242549680258E-17));
#424=CARTESIAN_POINT('Origin',(-32.0600000149012,0.,0.));
#425=CARTESIAN_POINT('Origin',(-29.5600000149012,0.,0.));
#426=CARTESIAN_POINT('',(-27.0600000149012,-0.5,-6.12323399573677E-17));
#427=CARTESIAN_POINT('Origin',(-27.0600000149012,0.,0.));
#428=CARTESIAN_POINT('',(-29.5600000149012,-0.4375,-5.35782974626967E-17));
#429=CARTESIAN_POINT('Origin',(-26.8100000149012,0.,0.));
#430=CARTESIAN_POINT('',(-26.5600000149012,-1.25,-1.53080849893419E-16));
#431=CARTESIAN_POINT('Origin',(-26.5600000149012,0.,0.));
#432=CARTESIAN_POINT('',(-26.8100000149012,-0.875,-1.07156594925393E-16));
#433=CARTESIAN_POINT('Origin',(-25.5600000149012,0.,0.));
#434=CARTESIAN_POINT('',(-24.5600000149012,-1.25,-1.53080849893419E-16));
#435=CARTESIAN_POINT('Origin',(-24.5600000149012,0.,0.));
#436=CARTESIAN_POINT('',(-25.5600000149012,-1.25,-1.53080849893419E-16));
#437=CARTESIAN_POINT('Origin',(-24.5600000149012,1.00000001490116,1.16960651181636E-16));
#438=CARTESIAN_POINT('',(-24.5600000149012,-1.00000001490116,-1.22464681739601E-16));
#439=CARTESIAN_POINT('Origin',(-24.5600000149012,0.,0.));
#440=CARTESIAN_POINT('Origin',(-24.0600000074506,0.,0.));
#441=CARTESIAN_POINT('',(-23.56,-1.00000001490116,-1.22464681739601E-16));
#442=CARTESIAN_POINT('Origin',(-23.56,0.,0.));
#443=CARTESIAN_POINT('',(-24.0600000074506,-1.00000001490116,-1.22464681739601E-16));
#444=CARTESIAN_POINT('Origin',(-23.56,1.25,1.53080849893419E-16));
#445=CARTESIAN_POINT('',(-23.56,-1.25,-1.53080849893419E-16));
#446=CARTESIAN_POINT('Origin',(-23.56,0.,0.));
#447=CARTESIAN_POINT('Origin',(-12.56,0.,0.));
#448=CARTESIAN_POINT('',(-1.56000000000001,-1.25,-1.53080849893419E-16));
#449=CARTESIAN_POINT('Origin',(-1.56000000000001,0.,0.));
#450=CARTESIAN_POINT('',(-12.56,-1.25,-1.53080849893419E-16));
#451=CARTESIAN_POINT('Origin',(-1.56,0.,0.));
#452=UNCERTAINTY_MEASURE_WITH_UNIT(LENGTH_MEASURE(0.01),#456,
'DISTANCE_ACCURACY_VALUE',
'Maximum model space distance between geometric entities at asserted c
onnectivities');
#453=UNCERTAINTY_MEASURE_WITH_UNIT(LENGTH_MEASURE(0.01),#456,
'DISTANCE_ACCURACY_VALUE',
'Maximum model space distance between geometric entities at asserted c
onnectivities');
#454=(
GEOMETRIC_REPRESENTATION_CONTEXT(3)
GLOBAL_UNCERTAINTY_ASSIGNED_CONTEXT((#452))
GLOBAL_UNIT_ASSIGNED_CONTEXT((#456,#457,#458))
REPRESENTATION_CONTEXT('','3D')
);
#455=(
GEOMETRIC_REPRESENTATION_CONTEXT(3)
GLOBAL_UNCERTAINTY_ASSIGNED_CONTEXT((#453))
GLOBAL_UNIT_ASSIGNED_CONTEXT((#456,#457,#458))
REPRESENTATION_CONTEXT('','3D')
);
#456=(
LENGTH_UNIT()
NAMED_UNIT(*)
SI_UNIT(.MILLI.,.METRE.)
);
#457=(
NAMED_UNIT(*)
PLANE_ANGLE_UNIT()
SI_UNIT($,.RADIAN.)
);
#458=(
NAMED_UNIT(*)
SI_UNIT($,.STERADIAN.)
SOLID_ANGLE_UNIT()
);
#459=SHAPE_DEFINITION_REPRESENTATION(#460,#461);
#460=PRODUCT_DEFINITION_SHAPE('',$,#463);
#461=SHAPE_REPRESENTATION('',(#232),#454);
#462=PRODUCT_DEFINITION_CONTEXT('part definition',#467,'design');
#463=PRODUCT_DEFINITION('Pi\X\E8ce \X\E0 main V15',
'Pi\X\E8ce \X\E0 main V15 v12',#464,#462);
#464=PRODUCT_DEFINITION_FORMATION('',$,#469);
#465=PRODUCT_RELATED_PRODUCT_CATEGORY('Pi\X\E8ce \X\E0 main V15 v12',
'Pi\X\E8ce \X\E0 main V15 v12',(#469));
#466=APPLICATION_PROTOCOL_DEFINITION('international standard',
'automotive_design',2009,#467);
#467=APPLICATION_CONTEXT(
'Core Data for Automotive Mechanical Design Process');
#468=PRODUCT_CONTEXT('part definition',#467,'mechanical');
#469=PRODUCT('Pi\X\E8ce \X\E0 main V15','Pi\X\E8ce \X\E0 main V15 v12',
$,(#468));
#470=PRESENTATION_STYLE_ASSIGNMENT((#483));
#471=PRESENTATION_STYLE_ASSIGNMENT((#484));
#472=PRESENTATION_STYLE_ASSIGNMENT((#485));
#473=PRESENTATION_STYLE_ASSIGNMENT((#486));
#474=PRESENTATION_STYLE_ASSIGNMENT((#487));
#475=PRESENTATION_STYLE_ASSIGNMENT((#488));
#476=PRESENTATION_STYLE_ASSIGNMENT((#489));
#477=PRESENTATION_STYLE_ASSIGNMENT((#490));
#478=PRESENTATION_STYLE_ASSIGNMENT((#491));
#479=PRESENTATION_STYLE_ASSIGNMENT((#492));
#480=PRESENTATION_STYLE_ASSIGNMENT((#493));
#481=PRESENTATION_STYLE_ASSIGNMENT((#494));
#482=PRESENTATION_STYLE_ASSIGNMENT((#495));
#483=SURFACE_STYLE_USAGE(.BOTH.,#496);
#484=SURFACE_STYLE_USAGE(.BOTH.,#497);
#485=SURFACE_STYLE_USAGE(.BOTH.,#498);
#486=SURFACE_STYLE_USAGE(.BOTH.,#499);
#487=SURFACE_STYLE_USAGE(.BOTH.,#500);
#488=SURFACE_STYLE_USAGE(.BOTH.,#501);
#489=SURFACE_STYLE_USAGE(.BOTH.,#502);
#490=SURFACE_STYLE_USAGE(.BOTH.,#503);
#491=SURFACE_STYLE_USAGE(.BOTH.,#504);
#492=SURFACE_STYLE_USAGE(.BOTH.,#505);
#493=SURFACE_STYLE_USAGE(.BOTH.,#506);
#494=SURFACE_STYLE_USAGE(.BOTH.,#507);
#495=SURFACE_STYLE_USAGE(.BOTH.,#508);
#496=SURFACE_SIDE_STYLE('',(#509));
#497=SURFACE_SIDE_STYLE('',(#510));
#498=SURFACE_SIDE_STYLE('',(#511));
#499=SURFACE_SIDE_STYLE('',(#512));
#500=SURFACE_SIDE_STYLE('',(#513));
#501=SURFACE_SIDE_STYLE('',(#514));
#502=SURFACE_SIDE_STYLE('',(#515));
#503=SURFACE_SIDE_STYLE('',(#516));
#504=SURFACE_SIDE_STYLE('',(#517));
#505=SURFACE_SIDE_STYLE('',(#518));
#506=SURFACE_SIDE_STYLE('',(#519));
#507=SURFACE_SIDE_STYLE('',(#520));
#508=SURFACE_SIDE_STYLE('',(#521));
#509=SURFACE_STYLE_FILL_AREA(#522);
#510=SURFACE_STYLE_FILL_AREA(#523);
#511=SURFACE_STYLE_FILL_AREA(#524);
#512=SURFACE_STYLE_FILL_AREA(#525);
#513=SURFACE_STYLE_FILL_AREA(#526);
#514=SURFACE_STYLE_FILL_AREA(#527);
#515=SURFACE_STYLE_FILL_AREA(#528);
#516=SURFACE_STYLE_FILL_AREA(#529);
#517=SURFACE_STYLE_FILL_AREA(#530);
#518=SURFACE_STYLE_FILL_AREA(#531);
#519=SURFACE_STYLE_FILL_AREA(#532);
#520=SURFACE_STYLE_FILL_AREA(#533);
#521=SURFACE_STYLE_FILL_AREA(#534);
#522=FILL_AREA_STYLE('Acier - Satin\X\E9',(#535));
#523=FILL_AREA_STYLE('Gold - Polished (1) (2) (1)',(#536));
#524=FILL_AREA_STYLE('Plastique - Brillant (bleu) (1)',(#537));
#525=FILL_AREA_STYLE('Gold - Polished (1) (1)',(#538));
#526=FILL_AREA_STYLE('Silicone (blanc)',(#539));
#527=FILL_AREA_STYLE('Gold - Polished (1) (1)',(#540));
#528=FILL_AREA_STYLE('Plastique - Brillant (bleu)',(#541));
#529=FILL_AREA_STYLE('Acier inoxydable - Satin\X\E9',(#542));
#530=FILL_AREA_STYLE('Cuivre - Brut',(#543));
#531=FILL_AREA_STYLE('Peinture - Brillant \X\E9maill\X\E9 (vert)',(#544));
#532=FILL_AREA_STYLE('Opaque(8,8,8)',(#545));
#533=FILL_AREA_STYLE('Caoutchouc - Souple (1)',(#546));
#534=FILL_AREA_STYLE('Caoutchouc - Souple',(#547));
#535=FILL_AREA_STYLE_COLOUR('Acier - Satin\X\E9',#548);
#536=FILL_AREA_STYLE_COLOUR('Gold - Polished (1) (2) (1)',#549);
#537=FILL_AREA_STYLE_COLOUR('Plastique - Brillant (bleu) (1)',#550);
#538=FILL_AREA_STYLE_COLOUR('Gold - Polished (1) (1)',#551);
#539=FILL_AREA_STYLE_COLOUR('Silicone (blanc)',#552);
#540=FILL_AREA_STYLE_COLOUR('Gold - Polished (1) (1)',#553);
#541=FILL_AREA_STYLE_COLOUR('Plastique - Brillant (bleu)',#554);
#542=FILL_AREA_STYLE_COLOUR('Acier inoxydable - Satin\X\E9',#555);
#543=FILL_AREA_STYLE_COLOUR('Cuivre - Brut',#556);
#544=FILL_AREA_STYLE_COLOUR('Peinture - Brillant \X\E9maill\X\E9 (vert
)',#557);
#545=FILL_AREA_STYLE_COLOUR('Opaque(8,8,8)',#558);
#546=FILL_AREA_STYLE_COLOUR('Caoutchouc - Souple (1)',#559);
#547=FILL_AREA_STYLE_COLOUR('Caoutchouc - Souple',#560);
#548=COLOUR_RGB('Acier - Satin\X\E9',0.627450980392157,0.627450980392157,
0.627450980392157);
#549=COLOUR_RGB('Gold - Polished (1) (2) (1)',0.984313725490196,1.,0.0431372549019608);
#550=COLOUR_RGB('Plastique - Brillant (bleu) (1)',0.,0.568627450980392,
1.);
#551=COLOUR_RGB('Gold - Polished (1) (1)',0.243137254901961,0.784313725490196,
0.109803921568627);
#552=COLOUR_RGB('Silicone (blanc)',0.964705882352941,0.964705882352941,
0.952941176470588);
#553=COLOUR_RGB('Gold - Polished (1) (1)',0.635294117647059,1.,0.545098039215686);
#554=COLOUR_RGB('Plastique - Brillant (bleu)',0.,1.,1.);
#555=COLOUR_RGB('Acier inoxydable - Satin\X\E9',0.796078431372549,0.796078431372549,
0.796078431372549);
#556=COLOUR_RGB('Cuivre - Brut',0.,0.,0.);
#557=COLOUR_RGB('Peinture - Brillant \X\E9maill\X\E9 (vert)',0.266666666666667,
0.588235294117647,0.282352941176471);
#558=COLOUR_RGB('Opaque(8,8,8)',0.0313725490196078,0.0313725490196078,0.0313725490196078);
#559=COLOUR_RGB('Caoutchouc - Souple (1)',1.,0.,0.);
#560=COLOUR_RGB('Caoutchouc - Souple',0.152941176470588,0.152941176470588,
0.152941176470588);
ENDSEC;
END-ISO-10303-21;
