ISO-10303-21;
HEADER;
/* Generated by software containing ST-Developer
 * from STEP Tools, Inc. (www.steptools.com) 
 */

FILE_DESCRIPTION(
/* description */ (''),
/* implementation_level */ '2;1');

FILE_NAME(
/* name */ 'C:\\Users\\Marco\\Desktop\\Holder JP\\holder cuvetta 05_2.
stp',
/* time_stamp */ '2019-04-20T09:07:23+02:00',
/* author */ ('Marco'),
/* organization */ (''),
/* preprocessor_version */ 'ST-DEVELOPER v16.1',
/* originating_system */ 'Autodesk Inventor 2016',
/* authorisation */ '');

FILE_SCHEMA (('AUTOMOTIVE_DESIGN { 1 0 10303 214 3 1 1 }'));
ENDSEC;

DATA;
#10=MECHANICAL_DESIGN_GEOMETRIC_PRESENTATION_REPRESENTATION('',(#235,#236,
#232,#233,#234,#237,#241,#238,#240,#239,#231,#227,#229,#228,#230),#413);
#11=SHAPE_REPRESENTATION_RELATIONSHIP('SRR','None',#422,#12);
#12=ADVANCED_BREP_SHAPE_REPRESENTATION('',(#13),#412);
#13=MANIFOLD_SOLID_BREP('Solido1',#256);
#14=LINE('',#355,#36);
#15=LINE('',#357,#37);
#16=LINE('',#359,#38);
#17=LINE('',#360,#39);
#18=LINE('',#364,#40);
#19=LINE('',#366,#41);
#20=LINE('',#368,#42);
#21=LINE('',#369,#43);
#22=LINE('',#373,#44);
#23=LINE('',#375,#45);
#24=LINE('',#376,#46);
#25=LINE('',#379,#47);
#26=LINE('',#381,#48);
#27=LINE('',#383,#49);
#28=LINE('',#384,#50);
#29=LINE('',#394,#51);
#30=LINE('',#395,#52);
#31=LINE('',#401,#53);
#32=LINE('',#403,#54);
#33=LINE('',#404,#55);
#34=LINE('',#406,#56);
#35=LINE('',#408,#57);
#36=VECTOR('',#291,16.);
#37=VECTOR('',#292,5.74939396165349);
#38=VECTOR('',#293,16.);
#39=VECTOR('',#294,5.74939396165349);
#40=VECTOR('',#297,16.);
#41=VECTOR('',#298,7.64939396165349);
#42=VECTOR('',#299,16.);
#43=VECTOR('',#300,7.64939396165349);
#44=VECTOR('',#305,23.5);
#45=VECTOR('',#306,29.9);
#46=VECTOR('',#307,23.5);
#47=VECTOR('',#310,8.5);
#48=VECTOR('',#311,13.);
#49=VECTOR('',#312,32.);
#50=VECTOR('',#313,29.);
#51=VECTOR('',#326,8.5);
#52=VECTOR('',#327,29.9);
#53=VECTOR('',#334,29.);
#54=VECTOR('',#335,32.);
#55=VECTOR('',#336,13.);
#56=VECTOR('',#339,29.9);
#57=VECTOR('',#342,29.9);
#58=PLANE('',#262);
#59=PLANE('',#263);
#60=PLANE('',#264);
#61=PLANE('',#266);
#62=PLANE('',#270);
#63=PLANE('',#272);
#64=PLANE('',#275);
#65=PLANE('',#276);
#66=PLANE('',#277);
#67=PLANE('',#278);
#68=FACE_BOUND('',#93,.T.);
#69=FACE_BOUND('',#99,.T.);
#70=FACE_BOUND('',#101,.T.);
#71=FACE_BOUND('',#104,.T.);
#72=FACE_BOUND('',#107,.T.);
#73=FACE_BOUND('',#110,.T.);
#74=CYLINDRICAL_SURFACE('',#260,1.2295);
#75=CYLINDRICAL_SURFACE('',#267,11.15);
#76=CYLINDRICAL_SURFACE('',#273,4.);
#77=FACE_OUTER_BOUND('',#91,.T.);
#78=FACE_OUTER_BOUND('',#92,.T.);
#79=FACE_OUTER_BOUND('',#94,.T.);
#80=FACE_OUTER_BOUND('',#95,.T.);
#81=FACE_OUTER_BOUND('',#96,.T.);
#82=FACE_OUTER_BOUND('',#97,.T.);
#83=FACE_OUTER_BOUND('',#98,.T.);
#84=FACE_OUTER_BOUND('',#100,.T.);
#85=FACE_OUTER_BOUND('',#102,.T.);
#86=FACE_OUTER_BOUND('',#103,.T.);
#87=FACE_OUTER_BOUND('',#105,.T.);
#88=FACE_OUTER_BOUND('',#106,.T.);
#89=FACE_OUTER_BOUND('',#108,.T.);
#90=FACE_OUTER_BOUND('',#109,.T.);
#91=EDGE_LOOP('',(#168));
#92=EDGE_LOOP('',(#169));
#93=EDGE_LOOP('',(#170));
#94=EDGE_LOOP('',(#171,#172,#173,#174));
#95=EDGE_LOOP('',(#175,#176,#177,#178));
#96=EDGE_LOOP('',(#179,#180,#181,#182,#183,#184));
#97=EDGE_LOOP('',(#185,#186,#187,#188,#189,#190));
#98=EDGE_LOOP('',(#191));
#99=EDGE_LOOP('',(#192,#193,#194,#195));
#100=EDGE_LOOP('',(#196));
#101=EDGE_LOOP('',(#197));
#102=EDGE_LOOP('',(#198,#199,#200,#201,#202,#203));
#103=EDGE_LOOP('',(#204));
#104=EDGE_LOOP('',(#205));
#105=EDGE_LOOP('',(#206,#207,#208,#209,#210,#211));
#106=EDGE_LOOP('',(#212,#213,#214,#215));
#107=EDGE_LOOP('',(#216));
#108=EDGE_LOOP('',(#217,#218,#219,#220));
#109=EDGE_LOOP('',(#221,#222,#223,#224));
#110=EDGE_LOOP('',(#225));
#111=CIRCLE('',#259,1.2295);
#112=CIRCLE('',#261,1.2295);
#113=CIRCLE('',#265,11.15);
#114=CIRCLE('',#268,11.15);
#115=CIRCLE('',#269,11.15);
#116=CIRCLE('',#271,4.);
#117=CIRCLE('',#274,4.);
#118=VERTEX_POINT('',#347);
#119=VERTEX_POINT('',#350);
#120=VERTEX_POINT('',#353);
#121=VERTEX_POINT('',#354);
#122=VERTEX_POINT('',#356);
#123=VERTEX_POINT('',#358);
#124=VERTEX_POINT('',#362);
#125=VERTEX_POINT('',#363);
#126=VERTEX_POINT('',#365);
#127=VERTEX_POINT('',#367);
#128=VERTEX_POINT('',#372);
#129=VERTEX_POINT('',#374);
#130=VERTEX_POINT('',#378);
#131=VERTEX_POINT('',#380);
#132=VERTEX_POINT('',#382);
#133=VERTEX_POINT('',#386);
#134=VERTEX_POINT('',#390);
#135=VERTEX_POINT('',#393);
#136=VERTEX_POINT('',#397);
#137=VERTEX_POINT('',#400);
#138=VERTEX_POINT('',#402);
#139=EDGE_CURVE('',#118,#118,#111,.T.);
#140=EDGE_CURVE('',#119,#119,#112,.T.);
#141=EDGE_CURVE('',#120,#121,#14,.T.);
#142=EDGE_CURVE('',#120,#122,#15,.T.);
#143=EDGE_CURVE('',#123,#122,#16,.T.);
#144=EDGE_CURVE('',#121,#123,#17,.T.);
#145=EDGE_CURVE('',#124,#125,#18,.T.);
#146=EDGE_CURVE('',#126,#124,#19,.T.);
#147=EDGE_CURVE('',#127,#126,#20,.T.);
#148=EDGE_CURVE('',#127,#125,#21,.T.);
#149=EDGE_CURVE('',#124,#121,#113,.T.);
#150=EDGE_CURVE('',#128,#123,#22,.T.);
#151=EDGE_CURVE('',#129,#128,#23,.T.);
#152=EDGE_CURVE('',#126,#129,#24,.T.);
#153=EDGE_CURVE('',#122,#130,#25,.T.);
#154=EDGE_CURVE('',#130,#131,#26,.T.);
#155=EDGE_CURVE('',#132,#131,#27,.T.);
#156=EDGE_CURVE('',#128,#132,#28,.T.);
#157=EDGE_CURVE('',#133,#133,#114,.T.);
#158=EDGE_CURVE('',#125,#120,#115,.T.);
#159=EDGE_CURVE('',#134,#134,#116,.T.);
#160=EDGE_CURVE('',#135,#127,#29,.T.);
#161=EDGE_CURVE('',#130,#135,#30,.T.);
#162=EDGE_CURVE('',#136,#136,#117,.T.);
#163=EDGE_CURVE('',#129,#137,#31,.T.);
#164=EDGE_CURVE('',#138,#137,#32,.T.);
#165=EDGE_CURVE('',#135,#138,#33,.T.);
#166=EDGE_CURVE('',#131,#138,#34,.T.);
#167=EDGE_CURVE('',#137,#132,#35,.T.);
#168=ORIENTED_EDGE('',*,*,#139,.T.);
#169=ORIENTED_EDGE('',*,*,#140,.F.);
#170=ORIENTED_EDGE('',*,*,#139,.F.);
#171=ORIENTED_EDGE('',*,*,#141,.F.);
#172=ORIENTED_EDGE('',*,*,#142,.T.);
#173=ORIENTED_EDGE('',*,*,#143,.F.);
#174=ORIENTED_EDGE('',*,*,#144,.F.);
#175=ORIENTED_EDGE('',*,*,#145,.F.);
#176=ORIENTED_EDGE('',*,*,#146,.F.);
#177=ORIENTED_EDGE('',*,*,#147,.F.);
#178=ORIENTED_EDGE('',*,*,#148,.T.);
#179=ORIENTED_EDGE('',*,*,#146,.T.);
#180=ORIENTED_EDGE('',*,*,#149,.T.);
#181=ORIENTED_EDGE('',*,*,#144,.T.);
#182=ORIENTED_EDGE('',*,*,#150,.F.);
#183=ORIENTED_EDGE('',*,*,#151,.F.);
#184=ORIENTED_EDGE('',*,*,#152,.F.);
#185=ORIENTED_EDGE('',*,*,#143,.T.);
#186=ORIENTED_EDGE('',*,*,#153,.T.);
#187=ORIENTED_EDGE('',*,*,#154,.T.);
#188=ORIENTED_EDGE('',*,*,#155,.F.);
#189=ORIENTED_EDGE('',*,*,#156,.F.);
#190=ORIENTED_EDGE('',*,*,#150,.T.);
#191=ORIENTED_EDGE('',*,*,#157,.T.);
#192=ORIENTED_EDGE('',*,*,#145,.T.);
#193=ORIENTED_EDGE('',*,*,#158,.T.);
#194=ORIENTED_EDGE('',*,*,#141,.T.);
#195=ORIENTED_EDGE('',*,*,#149,.F.);
#196=ORIENTED_EDGE('',*,*,#157,.F.);
#197=ORIENTED_EDGE('',*,*,#159,.F.);
#198=ORIENTED_EDGE('',*,*,#158,.F.);
#199=ORIENTED_EDGE('',*,*,#148,.F.);
#200=ORIENTED_EDGE('',*,*,#160,.F.);
#201=ORIENTED_EDGE('',*,*,#161,.F.);
#202=ORIENTED_EDGE('',*,*,#153,.F.);
#203=ORIENTED_EDGE('',*,*,#142,.F.);
#204=ORIENTED_EDGE('',*,*,#159,.T.);
#205=ORIENTED_EDGE('',*,*,#162,.F.);
#206=ORIENTED_EDGE('',*,*,#147,.T.);
#207=ORIENTED_EDGE('',*,*,#152,.T.);
#208=ORIENTED_EDGE('',*,*,#163,.T.);
#209=ORIENTED_EDGE('',*,*,#164,.F.);
#210=ORIENTED_EDGE('',*,*,#165,.F.);
#211=ORIENTED_EDGE('',*,*,#160,.T.);
#212=ORIENTED_EDGE('',*,*,#161,.T.);
#213=ORIENTED_EDGE('',*,*,#165,.T.);
#214=ORIENTED_EDGE('',*,*,#166,.F.);
#215=ORIENTED_EDGE('',*,*,#154,.F.);
#216=ORIENTED_EDGE('',*,*,#140,.T.);
#217=ORIENTED_EDGE('',*,*,#151,.T.);
#218=ORIENTED_EDGE('',*,*,#156,.T.);
#219=ORIENTED_EDGE('',*,*,#167,.F.);
#220=ORIENTED_EDGE('',*,*,#163,.F.);
#221=ORIENTED_EDGE('',*,*,#167,.T.);
#222=ORIENTED_EDGE('',*,*,#155,.T.);
#223=ORIENTED_EDGE('',*,*,#166,.T.);
#224=ORIENTED_EDGE('',*,*,#164,.T.);
#225=ORIENTED_EDGE('',*,*,#162,.T.);
#226=CONICAL_SURFACE('',#258,0.61475,59.);
#227=STYLED_ITEM('',(#432),#242);
#228=STYLED_ITEM('',(#432),#243);
#229=STYLED_ITEM('',(#432),#244);
#230=STYLED_ITEM('',(#432),#245);
#231=STYLED_ITEM('',(#432),#246);
#232=STYLED_ITEM('',(#432),#247);
#233=STYLED_ITEM('',(#432),#248);
#234=STYLED_ITEM('',(#432),#249);
#235=STYLED_ITEM('',(#432),#250);
#236=STYLED_ITEM('',(#432),#251);
#237=STYLED_ITEM('',(#432),#252);
#238=STYLED_ITEM('',(#432),#253);
#239=STYLED_ITEM('',(#432),#254);
#240=STYLED_ITEM('',(#432),#255);
#241=STYLED_ITEM('',(#431),#13);
#242=ADVANCED_FACE('',(#77),#226,.F.);
#243=ADVANCED_FACE('',(#78,#68),#74,.F.);
#244=ADVANCED_FACE('',(#79),#58,.F.);
#245=ADVANCED_FACE('',(#80),#59,.F.);
#246=ADVANCED_FACE('',(#81),#60,.T.);
#247=ADVANCED_FACE('',(#82),#61,.T.);
#248=ADVANCED_FACE('',(#83,#69),#75,.F.);
#249=ADVANCED_FACE('',(#84,#70),#62,.T.);
#250=ADVANCED_FACE('',(#85),#63,.T.);
#251=ADVANCED_FACE('',(#86,#71),#76,.F.);
#252=ADVANCED_FACE('',(#87),#64,.T.);
#253=ADVANCED_FACE('',(#88,#72),#65,.T.);
#254=ADVANCED_FACE('',(#89),#66,.T.);
#255=ADVANCED_FACE('',(#90,#73),#67,.T.);
#256=CLOSED_SHELL('',(#242,#243,#244,#245,#246,#247,#248,#249,#250,#251,
#252,#253,#254,#255));
#257=AXIS2_PLACEMENT_3D('placement',#345,#279,#280);
#258=AXIS2_PLACEMENT_3D('',#346,#281,#282);
#259=AXIS2_PLACEMENT_3D('',#348,#283,#284);
#260=AXIS2_PLACEMENT_3D('',#349,#285,#286);
#261=AXIS2_PLACEMENT_3D('',#351,#287,#288);
#262=AXIS2_PLACEMENT_3D('',#352,#289,#290);
#263=AXIS2_PLACEMENT_3D('',#361,#295,#296);
#264=AXIS2_PLACEMENT_3D('',#370,#301,#302);
#265=AXIS2_PLACEMENT_3D('',#371,#303,#304);
#266=AXIS2_PLACEMENT_3D('',#377,#308,#309);
#267=AXIS2_PLACEMENT_3D('',#385,#314,#315);
#268=AXIS2_PLACEMENT_3D('',#387,#316,#317);
#269=AXIS2_PLACEMENT_3D('',#388,#318,#319);
#270=AXIS2_PLACEMENT_3D('',#389,#320,#321);
#271=AXIS2_PLACEMENT_3D('',#391,#322,#323);
#272=AXIS2_PLACEMENT_3D('',#392,#324,#325);
#273=AXIS2_PLACEMENT_3D('',#396,#328,#329);
#274=AXIS2_PLACEMENT_3D('',#398,#330,#331);
#275=AXIS2_PLACEMENT_3D('',#399,#332,#333);
#276=AXIS2_PLACEMENT_3D('',#405,#337,#338);
#277=AXIS2_PLACEMENT_3D('',#407,#340,#341);
#278=AXIS2_PLACEMENT_3D('',#409,#343,#344);
#279=DIRECTION('axis',(0.,0.,1.));
#280=DIRECTION('refdir',(1.,0.,0.));
#281=DIRECTION('center_axis',(0.,1.,0.));
#282=DIRECTION('ref_axis',(1.,0.,0.));
#283=DIRECTION('center_axis',(0.,1.,0.));
#284=DIRECTION('ref_axis',(1.,0.,0.));
#285=DIRECTION('center_axis',(0.,1.,0.));
#286=DIRECTION('ref_axis',(1.,0.,0.));
#287=DIRECTION('center_axis',(0.,-1.,0.));
#288=DIRECTION('ref_axis',(1.,0.,0.));
#289=DIRECTION('center_axis',(0.,-1.,0.));
#290=DIRECTION('ref_axis',(-1.,0.,0.));
#291=DIRECTION('',(0.,0.,1.));
#292=DIRECTION('',(-1.,0.,0.));
#293=DIRECTION('',(0.,0.,-1.));
#294=DIRECTION('',(-1.,0.,0.));
#295=DIRECTION('center_axis',(0.,-1.,0.));
#296=DIRECTION('ref_axis',(-1.,0.,0.));
#297=DIRECTION('',(0.,0.,-1.));
#298=DIRECTION('',(-1.,0.,0.));
#299=DIRECTION('',(0.,0.,1.));
#300=DIRECTION('',(-1.,0.,0.));
#301=DIRECTION('center_axis',(0.,0.,1.));
#302=DIRECTION('ref_axis',(1.,0.,0.));
#303=DIRECTION('center_axis',(0.,0.,-1.));
#304=DIRECTION('ref_axis',(-1.,0.,0.));
#305=DIRECTION('',(0.,1.,0.));
#306=DIRECTION('',(-1.,0.,0.));
#307=DIRECTION('',(0.,-1.,0.));
#308=DIRECTION('center_axis',(-1.,0.,0.));
#309=DIRECTION('ref_axis',(0.,1.,0.));
#310=DIRECTION('',(0.,1.,0.));
#311=DIRECTION('',(0.,0.,-1.));
#312=DIRECTION('',(0.,1.,0.));
#313=DIRECTION('',(0.,0.,-1.));
#314=DIRECTION('center_axis',(0.,0.,-1.));
#315=DIRECTION('ref_axis',(-1.,0.,0.));
#316=DIRECTION('center_axis',(0.,0.,-1.));
#317=DIRECTION('ref_axis',(-1.,0.,0.));
#318=DIRECTION('center_axis',(0.,0.,1.));
#319=DIRECTION('ref_axis',(-1.,0.,0.));
#320=DIRECTION('center_axis',(0.,0.,1.));
#321=DIRECTION('ref_axis',(1.,0.,0.));
#322=DIRECTION('center_axis',(0.,0.,1.));
#323=DIRECTION('ref_axis',(-1.,0.,0.));
#324=DIRECTION('center_axis',(0.,0.,1.));
#325=DIRECTION('ref_axis',(1.,0.,0.));
#326=DIRECTION('',(0.,-1.,0.));
#327=DIRECTION('',(1.,0.,0.));
#328=DIRECTION('center_axis',(0.,0.,-1.));
#329=DIRECTION('ref_axis',(-1.,0.,0.));
#330=DIRECTION('center_axis',(0.,0.,1.));
#331=DIRECTION('ref_axis',(-1.,0.,0.));
#332=DIRECTION('center_axis',(1.,0.,0.));
#333=DIRECTION('ref_axis',(0.,-1.,0.));
#334=DIRECTION('',(0.,0.,-1.));
#335=DIRECTION('',(0.,-1.,0.));
#336=DIRECTION('',(0.,0.,-1.));
#337=DIRECTION('center_axis',(0.,1.,0.));
#338=DIRECTION('ref_axis',(1.,0.,0.));
#339=DIRECTION('',(1.,0.,0.));
#340=DIRECTION('center_axis',(0.,-1.,0.));
#341=DIRECTION('ref_axis',(-1.,0.,0.));
#342=DIRECTION('',(-1.,0.,0.));
#343=DIRECTION('center_axis',(0.,0.,-1.));
#344=DIRECTION('ref_axis',(-1.,0.,0.));
#345=CARTESIAN_POINT('',(0.,0.,0.));
#346=CARTESIAN_POINT('Origin',(-3.5,22.8306209344528,-25.));
#347=CARTESIAN_POINT('',(-2.2705,23.2,-25.));
#348=CARTESIAN_POINT('Origin',(-3.5,23.2,-25.));
#349=CARTESIAN_POINT('Origin',(-3.5,27.6,-25.));
#350=CARTESIAN_POINT('',(-2.2705,32.,-25.));
#351=CARTESIAN_POINT('Origin',(-3.5,32.,-25.));
#352=CARTESIAN_POINT('Origin',(0.,23.5,0.));
#353=CARTESIAN_POINT('',(-24.1506060383465,23.5,-16.));
#354=CARTESIAN_POINT('',(-24.1506060383465,23.5,0.));
#355=CARTESIAN_POINT('',(-24.1506060383465,23.5,0.));
#356=CARTESIAN_POINT('',(-29.9,23.5,-16.));
#357=CARTESIAN_POINT('',(-29.9,23.5,-16.));
#358=CARTESIAN_POINT('',(-29.9,23.5,0.));
#359=CARTESIAN_POINT('',(-29.9,23.5,0.));
#360=CARTESIAN_POINT('',(-7.475,23.5,0.));
#361=CARTESIAN_POINT('Origin',(0.,23.5,0.));
#362=CARTESIAN_POINT('',(-7.64939396165348,23.5,0.));
#363=CARTESIAN_POINT('',(-7.64939396165348,23.5,-16.));
#364=CARTESIAN_POINT('',(-7.64939396165348,23.5,0.));
#365=CARTESIAN_POINT('',(1.68295384950333E-15,23.5,0.));
#366=CARTESIAN_POINT('',(-7.475,23.5,0.));
#367=CARTESIAN_POINT('',(0.,23.5,-16.));
#368=CARTESIAN_POINT('',(0.,23.5,0.));
#369=CARTESIAN_POINT('',(-29.9,23.5,-16.));
#370=CARTESIAN_POINT('Origin',(-14.95,16.,0.));
#371=CARTESIAN_POINT('Origin',(-15.9,16.,0.));
#372=CARTESIAN_POINT('',(-29.9,0.,0.));
#373=CARTESIAN_POINT('',(-29.9,0.,0.));
#374=CARTESIAN_POINT('',(0.,0.,0.));
#375=CARTESIAN_POINT('',(0.,0.,0.));
#376=CARTESIAN_POINT('',(0.,32.,0.));
#377=CARTESIAN_POINT('Origin',(-29.9,0.,0.));
#378=CARTESIAN_POINT('',(-29.9,32.,-16.));
#379=CARTESIAN_POINT('',(-29.9,13.875,-16.));
#380=CARTESIAN_POINT('',(-29.9,32.,-29.));
#381=CARTESIAN_POINT('',(-29.9,32.,0.));
#382=CARTESIAN_POINT('',(-29.9,0.,-29.));
#383=CARTESIAN_POINT('',(-29.9,0.,-29.));
#384=CARTESIAN_POINT('',(-29.9,0.,0.));
#385=CARTESIAN_POINT('Origin',(-15.9,16.,0.));
#386=CARTESIAN_POINT('',(-4.75,16.,-22.5));
#387=CARTESIAN_POINT('Origin',(-15.9,16.,-22.5));
#388=CARTESIAN_POINT('Origin',(-15.9,16.,-16.));
#389=CARTESIAN_POINT('Origin',(-15.9,16.,-22.5));
#390=CARTESIAN_POINT('',(-11.9,16.,-22.5));
#391=CARTESIAN_POINT('Origin',(-15.9,16.,-22.5));
#392=CARTESIAN_POINT('Origin',(-15.2319108806524,29.2064641421059,-16.));
#393=CARTESIAN_POINT('',(0.,32.,-16.));
#394=CARTESIAN_POINT('',(0.,29.875,-16.));
#395=CARTESIAN_POINT('',(-22.5659554403262,32.,-16.));
#396=CARTESIAN_POINT('Origin',(-15.9,16.,0.));
#397=CARTESIAN_POINT('',(-11.9,16.,-29.));
#398=CARTESIAN_POINT('Origin',(-15.9,16.,-29.));
#399=CARTESIAN_POINT('Origin',(0.,32.,0.));
#400=CARTESIAN_POINT('',(0.,0.,-29.));
#401=CARTESIAN_POINT('',(0.,0.,0.));
#402=CARTESIAN_POINT('',(0.,32.,-29.));
#403=CARTESIAN_POINT('',(0.,32.,-29.));
#404=CARTESIAN_POINT('',(0.,32.,0.));
#405=CARTESIAN_POINT('Origin',(-29.9,32.,0.));
#406=CARTESIAN_POINT('',(-29.9,32.,-29.));
#407=CARTESIAN_POINT('Origin',(0.,0.,0.));
#408=CARTESIAN_POINT('',(0.,0.,-29.));
#409=CARTESIAN_POINT('Origin',(-14.95,16.,-29.));
#410=UNCERTAINTY_MEASURE_WITH_UNIT(LENGTH_MEASURE(0.01),#414,
'DISTANCE_ACCURACY_VALUE',
'Maximum model space distance between geometric entities at asserted c
onnectivities');
#411=UNCERTAINTY_MEASURE_WITH_UNIT(LENGTH_MEASURE(1.E-6),#414,
'DISTANCE_ACCURACY_VALUE',
'Maximum model space distance between geometric entities at asserted c
onnectivities');
#412=(
GEOMETRIC_REPRESENTATION_CONTEXT(3)
GLOBAL_UNCERTAINTY_ASSIGNED_CONTEXT((#410))
GLOBAL_UNIT_ASSIGNED_CONTEXT((#414,#417,#415))
REPRESENTATION_CONTEXT('','3D')
);
#413=(
GEOMETRIC_REPRESENTATION_CONTEXT(3)
GLOBAL_UNCERTAINTY_ASSIGNED_CONTEXT((#411))
GLOBAL_UNIT_ASSIGNED_CONTEXT((#414,#417,#415))
REPRESENTATION_CONTEXT('','3D')
);
#414=(
LENGTH_UNIT()
NAMED_UNIT(*)
SI_UNIT(.MILLI.,.METRE.)
);
#415=(
NAMED_UNIT(*)
SI_UNIT($,.STERADIAN.)
SOLID_ANGLE_UNIT()
);
#416=DIMENSIONAL_EXPONENTS(0.,0.,0.,0.,0.,0.,0.);
#417=(
CONVERSION_BASED_UNIT('degree',#419)
NAMED_UNIT(#416)
PLANE_ANGLE_UNIT()
);
#418=(
NAMED_UNIT(*)
PLANE_ANGLE_UNIT()
SI_UNIT($,.RADIAN.)
);
#419=PLANE_ANGLE_MEASURE_WITH_UNIT(PLANE_ANGLE_MEASURE(0.01745329252),#418);
#420=SHAPE_DEFINITION_REPRESENTATION(#421,#422);
#421=PRODUCT_DEFINITION_SHAPE('',$,#424);
#422=SHAPE_REPRESENTATION('',(#257),#412);
#423=PRODUCT_DEFINITION_CONTEXT('part definition',#428,'design');
#424=PRODUCT_DEFINITION('holder cuvetta 05_2','holder cuvetta 05_2',#425,
#423);
#425=PRODUCT_DEFINITION_FORMATION('',$,#430);
#426=PRODUCT_RELATED_PRODUCT_CATEGORY('holder cuvetta 05_2',
'holder cuvetta 05_2',(#430));
#427=APPLICATION_PROTOCOL_DEFINITION('international standard',
'automotive_design',2009,#428);
#428=APPLICATION_CONTEXT(
'Core Data for Automotive Mechanical Design Process');
#429=PRODUCT_CONTEXT('part definition',#428,'mechanical');
#430=PRODUCT('holder cuvetta 05_2','holder cuvetta 05_2',$,(#429));
#431=PRESENTATION_STYLE_ASSIGNMENT((#433));
#432=PRESENTATION_STYLE_ASSIGNMENT((#434));
#433=SURFACE_STYLE_USAGE(.BOTH.,#435);
#434=SURFACE_STYLE_USAGE(.BOTH.,#436);
#435=SURFACE_SIDE_STYLE('',(#437));
#436=SURFACE_SIDE_STYLE('',(#438));
#437=SURFACE_STYLE_FILL_AREA(#439);
#438=SURFACE_STYLE_FILL_AREA(#440);
#439=FILL_AREA_STYLE('',(#441));
#440=FILL_AREA_STYLE('',(#442));
#441=FILL_AREA_STYLE_COLOUR('',#443);
#442=FILL_AREA_STYLE_COLOUR('',#444);
#443=COLOUR_RGB('',0.749019607843137,0.749019607843137,0.749019607843137);
#444=COLOUR_RGB('',0.0392156862745098,0.0392156862745098,0.0392156862745098);
ENDSEC;
END-ISO-10303-21;
