ISO-10303-21;
HEADER;
/* Generated by software containing ST-Developer
 * from STEP Tools, Inc. (www.steptools.com) 
 */

FILE_DESCRIPTION(
/* description */ (''),
/* implementation_level */ '2;1');

FILE_NAME(
/* name */ 
'C:/Users/ced0w/OneDrive/Documents/Saint-Luc/DI 5eme/Stage/Wireless/Co
mmandes/BONDING PLASTIC.step',
/* time_stamp */ '2020-10-12T11:39:37+02:00',
/* author */ (''),
/* organization */ (''),
/* preprocessor_version */ 'ST-DEVELOPER v18.1',
/* originating_system */ 'Autodesk Translation Framework v9.3.0.1241',
/* authorisation */ '');

FILE_SCHEMA (('AUTOMOTIVE_DESIGN { 1 0 10303 214 3 1 1 }'));
ENDSEC;

DATA;
#10=MECHANICAL_DESIGN_GEOMETRIC_PRESENTATION_REPRESENTATION('',(#13),#248);
#11=SHAPE_REPRESENTATION_RELATIONSHIP('SRR','None',#254,#12);
#12=ADVANCED_BREP_SHAPE_REPRESENTATION('',(#14),#247);
#13=STYLED_ITEM('',(#267),#14);
#14=MANIFOLD_SOLID_BREP('Plastique',#140);
#15=LINE('',#218,#20);
#16=LINE('',#224,#21);
#17=LINE('',#231,#22);
#18=LINE('',#239,#23);
#19=LINE('',#244,#24);
#20=VECTOR('',#174,3.);
#21=VECTOR('',#181,1.5);
#22=VECTOR('',#190,1.25);
#23=VECTOR('',#201,3.);
#24=VECTOR('',#208,2.5);
#25=CYLINDRICAL_SURFACE('',#145,3.);
#26=CYLINDRICAL_SURFACE('',#149,1.5);
#27=CYLINDRICAL_SURFACE('',#153,1.25);
#28=CYLINDRICAL_SURFACE('',#157,3.);
#29=CYLINDRICAL_SURFACE('',#161,2.5);
#30=FACE_BOUND('',#46,.T.);
#31=FACE_BOUND('',#49,.T.);
#32=FACE_BOUND('',#52,.T.);
#33=FACE_BOUND('',#55,.T.);
#34=FACE_BOUND('',#58,.T.);
#35=FACE_OUTER_BOUND('',#45,.T.);
#36=FACE_OUTER_BOUND('',#47,.T.);
#37=FACE_OUTER_BOUND('',#48,.T.);
#38=FACE_OUTER_BOUND('',#50,.T.);
#39=FACE_OUTER_BOUND('',#51,.T.);
#40=FACE_OUTER_BOUND('',#53,.T.);
#41=FACE_OUTER_BOUND('',#54,.T.);
#42=FACE_OUTER_BOUND('',#56,.T.);
#43=FACE_OUTER_BOUND('',#57,.T.);
#44=FACE_OUTER_BOUND('',#59,.T.);
#45=EDGE_LOOP('',(#95));
#46=EDGE_LOOP('',(#96));
#47=EDGE_LOOP('',(#97,#98,#99,#100));
#48=EDGE_LOOP('',(#101));
#49=EDGE_LOOP('',(#102));
#50=EDGE_LOOP('',(#103,#104,#105,#106));
#51=EDGE_LOOP('',(#107));
#52=EDGE_LOOP('',(#108));
#53=EDGE_LOOP('',(#109,#110,#111,#112));
#54=EDGE_LOOP('',(#113));
#55=EDGE_LOOP('',(#114));
#56=EDGE_LOOP('',(#115,#116,#117,#118));
#57=EDGE_LOOP('',(#119));
#58=EDGE_LOOP('',(#120));
#59=EDGE_LOOP('',(#121,#122,#123,#124));
#60=CIRCLE('',#143,3.00000000000001);
#61=CIRCLE('',#144,2.5);
#62=CIRCLE('',#146,3.);
#63=CIRCLE('',#148,1.5);
#64=CIRCLE('',#150,1.5);
#65=CIRCLE('',#152,1.25);
#66=CIRCLE('',#154,1.25);
#67=CIRCLE('',#156,3.);
#68=CIRCLE('',#158,3.);
#69=CIRCLE('',#160,2.5);
#70=VERTEX_POINT('',#211);
#71=VERTEX_POINT('',#213);
#72=VERTEX_POINT('',#216);
#73=VERTEX_POINT('',#220);
#74=VERTEX_POINT('',#223);
#75=VERTEX_POINT('',#227);
#76=VERTEX_POINT('',#230);
#77=VERTEX_POINT('',#234);
#78=VERTEX_POINT('',#237);
#79=VERTEX_POINT('',#241);
#80=EDGE_CURVE('',#70,#70,#60,.T.);
#81=EDGE_CURVE('',#71,#71,#61,.T.);
#82=EDGE_CURVE('',#72,#72,#62,.T.);
#83=EDGE_CURVE('',#72,#70,#15,.T.);
#84=EDGE_CURVE('',#73,#73,#63,.T.);
#85=EDGE_CURVE('',#73,#74,#16,.T.);
#86=EDGE_CURVE('',#74,#74,#64,.T.);
#87=EDGE_CURVE('',#75,#75,#65,.T.);
#88=EDGE_CURVE('',#75,#76,#17,.T.);
#89=EDGE_CURVE('',#76,#76,#66,.T.);
#90=EDGE_CURVE('',#77,#77,#67,.T.);
#91=EDGE_CURVE('',#78,#78,#68,.T.);
#92=EDGE_CURVE('',#78,#77,#18,.T.);
#93=EDGE_CURVE('',#79,#79,#69,.T.);
#94=EDGE_CURVE('',#71,#79,#19,.T.);
#95=ORIENTED_EDGE('',*,*,#80,.F.);
#96=ORIENTED_EDGE('',*,*,#81,.T.);
#97=ORIENTED_EDGE('',*,*,#82,.F.);
#98=ORIENTED_EDGE('',*,*,#83,.T.);
#99=ORIENTED_EDGE('',*,*,#80,.T.);
#100=ORIENTED_EDGE('',*,*,#83,.F.);
#101=ORIENTED_EDGE('',*,*,#82,.T.);
#102=ORIENTED_EDGE('',*,*,#84,.F.);
#103=ORIENTED_EDGE('',*,*,#84,.T.);
#104=ORIENTED_EDGE('',*,*,#85,.T.);
#105=ORIENTED_EDGE('',*,*,#86,.F.);
#106=ORIENTED_EDGE('',*,*,#85,.F.);
#107=ORIENTED_EDGE('',*,*,#86,.T.);
#108=ORIENTED_EDGE('',*,*,#87,.F.);
#109=ORIENTED_EDGE('',*,*,#87,.T.);
#110=ORIENTED_EDGE('',*,*,#88,.T.);
#111=ORIENTED_EDGE('',*,*,#89,.F.);
#112=ORIENTED_EDGE('',*,*,#88,.F.);
#113=ORIENTED_EDGE('',*,*,#90,.F.);
#114=ORIENTED_EDGE('',*,*,#89,.T.);
#115=ORIENTED_EDGE('',*,*,#91,.F.);
#116=ORIENTED_EDGE('',*,*,#92,.T.);
#117=ORIENTED_EDGE('',*,*,#90,.T.);
#118=ORIENTED_EDGE('',*,*,#92,.F.);
#119=ORIENTED_EDGE('',*,*,#91,.T.);
#120=ORIENTED_EDGE('',*,*,#93,.F.);
#121=ORIENTED_EDGE('',*,*,#81,.F.);
#122=ORIENTED_EDGE('',*,*,#94,.T.);
#123=ORIENTED_EDGE('',*,*,#93,.T.);
#124=ORIENTED_EDGE('',*,*,#94,.F.);
#125=PLANE('',#142);
#126=PLANE('',#147);
#127=PLANE('',#151);
#128=PLANE('',#155);
#129=PLANE('',#159);
#130=ADVANCED_FACE('',(#35,#30),#125,.T.);
#131=ADVANCED_FACE('',(#36),#25,.T.);
#132=ADVANCED_FACE('',(#37,#31),#126,.T.);
#133=ADVANCED_FACE('',(#38),#26,.F.);
#134=ADVANCED_FACE('',(#39,#32),#127,.T.);
#135=ADVANCED_FACE('',(#40),#27,.F.);
#136=ADVANCED_FACE('',(#41,#33),#128,.T.);
#137=ADVANCED_FACE('',(#42),#28,.T.);
#138=ADVANCED_FACE('',(#43,#34),#129,.T.);
#139=ADVANCED_FACE('',(#44),#29,.T.);
#140=CLOSED_SHELL('',(#130,#131,#132,#133,#134,#135,#136,#137,#138,#139));
#141=AXIS2_PLACEMENT_3D('placement',#209,#162,#163);
#142=AXIS2_PLACEMENT_3D('',#210,#164,#165);
#143=AXIS2_PLACEMENT_3D('',#212,#166,#167);
#144=AXIS2_PLACEMENT_3D('',#214,#168,#169);
#145=AXIS2_PLACEMENT_3D('',#215,#170,#171);
#146=AXIS2_PLACEMENT_3D('',#217,#172,#173);
#147=AXIS2_PLACEMENT_3D('',#219,#175,#176);
#148=AXIS2_PLACEMENT_3D('',#221,#177,#178);
#149=AXIS2_PLACEMENT_3D('',#222,#179,#180);
#150=AXIS2_PLACEMENT_3D('',#225,#182,#183);
#151=AXIS2_PLACEMENT_3D('',#226,#184,#185);
#152=AXIS2_PLACEMENT_3D('',#228,#186,#187);
#153=AXIS2_PLACEMENT_3D('',#229,#188,#189);
#154=AXIS2_PLACEMENT_3D('',#232,#191,#192);
#155=AXIS2_PLACEMENT_3D('',#233,#193,#194);
#156=AXIS2_PLACEMENT_3D('',#235,#195,#196);
#157=AXIS2_PLACEMENT_3D('',#236,#197,#198);
#158=AXIS2_PLACEMENT_3D('',#238,#199,#200);
#159=AXIS2_PLACEMENT_3D('',#240,#202,#203);
#160=AXIS2_PLACEMENT_3D('',#242,#204,#205);
#161=AXIS2_PLACEMENT_3D('',#243,#206,#207);
#162=DIRECTION('axis',(0.,0.,1.));
#163=DIRECTION('refdir',(1.,0.,0.));
#164=DIRECTION('center_axis',(-1.,3.02705960441822E-49,6.95822044970087E-18));
#165=DIRECTION('ref_axis',(6.95822044970087E-18,0.,1.));
#166=DIRECTION('center_axis',(1.,-3.02705960441822E-49,-6.95822044970087E-18));
#167=DIRECTION('ref_axis',(-6.95822044970087E-18,0.,-1.));
#168=DIRECTION('center_axis',(1.,-3.02705960441822E-49,-6.95822044970087E-18));
#169=DIRECTION('ref_axis',(-6.95822044970087E-18,0.,-1.));
#170=DIRECTION('center_axis',(1.,-3.02705960441822E-49,-6.95822044970087E-18));
#171=DIRECTION('ref_axis',(0.,1.,-4.70211337277166E-17));
#172=DIRECTION('center_axis',(1.,-3.02705960441822E-49,-6.95822044970087E-18));
#173=DIRECTION('ref_axis',(-6.95822044970087E-18,0.,-1.));
#174=DIRECTION('',(-1.,3.02705960441822E-49,6.95822044970087E-18));
#175=DIRECTION('center_axis',(1.,-3.02705960441822E-49,-6.95822044970087E-18));
#176=DIRECTION('ref_axis',(-6.95822044970087E-18,0.,-1.));
#177=DIRECTION('center_axis',(1.,-3.02705960441822E-49,-6.95822044970087E-18));
#178=DIRECTION('ref_axis',(-6.95822044970087E-18,0.,-1.));
#179=DIRECTION('center_axis',(1.,-3.02705960441822E-49,-6.95822044970087E-18));
#180=DIRECTION('ref_axis',(0.,1.,-4.70211337277166E-17));
#181=DIRECTION('',(-1.,3.02705960441822E-49,6.95822044970087E-18));
#182=DIRECTION('center_axis',(1.,-3.02705960441822E-49,-6.95822044970087E-18));
#183=DIRECTION('ref_axis',(-6.95822044970087E-18,0.,-1.));
#184=DIRECTION('center_axis',(1.,-3.02705960441822E-49,-6.95822044970087E-18));
#185=DIRECTION('ref_axis',(-6.95822044970087E-18,0.,-1.));
#186=DIRECTION('center_axis',(1.,-3.02705960441822E-49,-6.95822044970087E-18));
#187=DIRECTION('ref_axis',(-6.95822044970087E-18,0.,-1.));
#188=DIRECTION('center_axis',(1.,-3.02705960441822E-49,-6.95822044970087E-18));
#189=DIRECTION('ref_axis',(0.,1.,-4.70211337277166E-17));
#190=DIRECTION('',(-1.,3.02705960441822E-49,6.95822044970087E-18));
#191=DIRECTION('center_axis',(1.,-3.02705960441822E-49,-6.95822044970087E-18));
#192=DIRECTION('ref_axis',(-6.95822044970087E-18,0.,-1.));
#193=DIRECTION('center_axis',(-1.,3.02705960441822E-49,6.95822044970087E-18));
#194=DIRECTION('ref_axis',(6.95822044970087E-18,0.,1.));
#195=DIRECTION('center_axis',(1.,-3.02705960441822E-49,-6.95822044970087E-18));
#196=DIRECTION('ref_axis',(-6.95822044970087E-18,0.,-1.));
#197=DIRECTION('center_axis',(1.,-3.02705960441822E-49,-6.95822044970087E-18));
#198=DIRECTION('ref_axis',(0.,1.,-4.70211337277166E-17));
#199=DIRECTION('center_axis',(1.,-3.02705960441822E-49,-6.95822044970087E-18));
#200=DIRECTION('ref_axis',(-6.95822044970087E-18,0.,-1.));
#201=DIRECTION('',(-1.,3.02705960441822E-49,6.95822044970087E-18));
#202=DIRECTION('center_axis',(1.,-3.02705960441822E-49,-6.95822044970087E-18));
#203=DIRECTION('ref_axis',(-6.95822044970087E-18,0.,-1.));
#204=DIRECTION('center_axis',(1.,-3.02705960441822E-49,-6.95822044970087E-18));
#205=DIRECTION('ref_axis',(-6.95822044970087E-18,0.,-1.));
#206=DIRECTION('center_axis',(1.,-3.02705960441822E-49,-6.95822044970087E-18));
#207=DIRECTION('ref_axis',(0.,1.,-4.70211337277166E-17));
#208=DIRECTION('',(-1.,3.02705960441822E-49,6.95822044970087E-18));
#209=CARTESIAN_POINT('',(0.,0.,0.));
#210=CARTESIAN_POINT('Origin',(-5.31000000000002,3.00000000000001,-1.92592994438724E-33));
#211=CARTESIAN_POINT('',(-5.31000000000002,-3.,-1.10288931369122E-16));
#212=CARTESIAN_POINT('Origin',(-5.31000000000002,4.85231983378623E-48,1.16041707191934E-16));
#213=CARTESIAN_POINT('',(-5.31000000000001,-2.5,-7.25671582756123E-17));
#214=CARTESIAN_POINT('Origin',(-5.31000000000001,4.85231983378623E-48,1.16041707191934E-16));
#215=CARTESIAN_POINT('Origin',(-0.110000000000068,3.27824883948877E-48,
7.98589608534903E-17));
#216=CARTESIAN_POINT('',(5.08999999999988,-3.,-1.8265442404601E-16));
#217=CARTESIAN_POINT('Origin',(5.08999999999988,1.70417784519131E-48,4.36762145150461E-17));
#218=CARTESIAN_POINT('',(-0.110000000000068,-3.,-1.46471677707566E-16));
#219=CARTESIAN_POINT('Origin',(5.08999999999988,1.5,1.83697019872103E-16));
#220=CARTESIAN_POINT('',(5.08999999999988,-1.5,-6.94891047654819E-17));
#221=CARTESIAN_POINT('Origin',(5.08999999999988,1.70417784519131E-48,4.36762145150461E-17));
#222=CARTESIAN_POINT('Origin',(1.76499999999993,2.71067516366035E-48,6.68122975103011E-17));
#223=CARTESIAN_POINT('',(-1.56000000000001,-1.5,-2.32169387749719E-17));
#224=CARTESIAN_POINT('',(1.76499999999993,-1.5,-4.63530217702269E-17));
#225=CARTESIAN_POINT('Origin',(-1.56000000000001,3.71717248212939E-48,8.99483805055562E-17));
#226=CARTESIAN_POINT('Origin',(-1.56000000000001,1.25,0.));
#227=CARTESIAN_POINT('',(-1.56000000000001,-1.25,-4.3560522282172E-18));
#228=CARTESIAN_POINT('Origin',(-1.56000000000001,3.71717248212939E-48,8.99483805055561E-17));
#229=CARTESIAN_POINT('Origin',(-4.18500000000001,4.51177562828918E-48,1.08213709186021E-16));
#230=CARTESIAN_POINT('',(-6.81000000000001,-1.25,3.21746051327124E-17));
#231=CARTESIAN_POINT('',(-4.18500000000001,-1.25,1.39092764522476E-17));
#232=CARTESIAN_POINT('Origin',(-6.81000000000001,5.30637877444896E-48,1.26479037866486E-16));
#233=CARTESIAN_POINT('Origin',(-6.81000000000002,3.,3.85185988877447E-33));
#234=CARTESIAN_POINT('',(-6.81000000000002,-3.,-9.98516006945704E-17));
#235=CARTESIAN_POINT('Origin',(-6.81000000000002,5.30637877444896E-48,1.26479037866486E-16));
#236=CARTESIAN_POINT('Origin',(-6.30999999254944,5.15502579197272E-48,1.22999927589793E-16));
#237=CARTESIAN_POINT('',(-5.80999998509886,-3.,-1.06809821247957E-16));
#238=CARTESIAN_POINT('Origin',(-5.80999998509886,5.00367280949647E-48,1.19520817313099E-16));
#239=CARTESIAN_POINT('',(-6.30999999254944,-3.,-1.03330710971264E-16));
#240=CARTESIAN_POINT('Origin',(-5.80999998509885,2.5,5.39967721273323E-18));
#241=CARTESIAN_POINT('',(-5.80999998509885,-2.5,-6.90880481544474E-17));
#242=CARTESIAN_POINT('Origin',(-5.80999998509885,5.00367280949647E-48,1.19520817313099E-16));
#243=CARTESIAN_POINT('Origin',(-5.55999999254943,4.92799632164135E-48,1.17781262252517E-16));
#244=CARTESIAN_POINT('',(-5.55999999254943,-2.5,-7.08276032150298E-17));
#245=UNCERTAINTY_MEASURE_WITH_UNIT(LENGTH_MEASURE(0.01),#249,
'DISTANCE_ACCURACY_VALUE',
'Maximum model space distance between geometric entities at asserted c
onnectivities');
#246=UNCERTAINTY_MEASURE_WITH_UNIT(LENGTH_MEASURE(0.01),#249,
'DISTANCE_ACCURACY_VALUE',
'Maximum model space distance between geometric entities at asserted c
onnectivities');
#247=(
GEOMETRIC_REPRESENTATION_CONTEXT(3)
GLOBAL_UNCERTAINTY_ASSIGNED_CONTEXT((#245))
GLOBAL_UNIT_ASSIGNED_CONTEXT((#249,#250,#251))
REPRESENTATION_CONTEXT('','3D')
);
#248=(
GEOMETRIC_REPRESENTATION_CONTEXT(3)
GLOBAL_UNCERTAINTY_ASSIGNED_CONTEXT((#246))
GLOBAL_UNIT_ASSIGNED_CONTEXT((#249,#250,#251))
REPRESENTATION_CONTEXT('','3D')
);
#249=(
LENGTH_UNIT()
NAMED_UNIT(*)
SI_UNIT(.MILLI.,.METRE.)
);
#250=(
NAMED_UNIT(*)
PLANE_ANGLE_UNIT()
SI_UNIT($,.RADIAN.)
);
#251=(
NAMED_UNIT(*)
SI_UNIT($,.STERADIAN.)
SOLID_ANGLE_UNIT()
);
#252=SHAPE_DEFINITION_REPRESENTATION(#253,#254);
#253=PRODUCT_DEFINITION_SHAPE('',$,#256);
#254=SHAPE_REPRESENTATION('',(#141),#247);
#255=PRODUCT_DEFINITION_CONTEXT('part definition',#260,'design');
#256=PRODUCT_DEFINITION('Pi\X\E8ce \X\E0 main V15',
'Pi\X\E8ce \X\E0 main V15 v12',#257,#255);
#257=PRODUCT_DEFINITION_FORMATION('',$,#262);
#258=PRODUCT_RELATED_PRODUCT_CATEGORY('Pi\X\E8ce \X\E0 main V15 v12',
'Pi\X\E8ce \X\E0 main V15 v12',(#262));
#259=APPLICATION_PROTOCOL_DEFINITION('international standard',
'automotive_design',2009,#260);
#260=APPLICATION_CONTEXT(
'Core Data for Automotive Mechanical Design Process');
#261=PRODUCT_CONTEXT('part definition',#260,'mechanical');
#262=PRODUCT('Pi\X\E8ce \X\E0 main V15','Pi\X\E8ce \X\E0 main V15 v12',
$,(#261));
#263=PRESENTATION_STYLE_ASSIGNMENT((#276));
#264=PRESENTATION_STYLE_ASSIGNMENT((#277));
#265=PRESENTATION_STYLE_ASSIGNMENT((#278));
#266=PRESENTATION_STYLE_ASSIGNMENT((#279));
#267=PRESENTATION_STYLE_ASSIGNMENT((#280));
#268=PRESENTATION_STYLE_ASSIGNMENT((#281));
#269=PRESENTATION_STYLE_ASSIGNMENT((#282));
#270=PRESENTATION_STYLE_ASSIGNMENT((#283));
#271=PRESENTATION_STYLE_ASSIGNMENT((#284));
#272=PRESENTATION_STYLE_ASSIGNMENT((#285));
#273=PRESENTATION_STYLE_ASSIGNMENT((#286));
#274=PRESENTATION_STYLE_ASSIGNMENT((#287));
#275=PRESENTATION_STYLE_ASSIGNMENT((#288));
#276=SURFACE_STYLE_USAGE(.BOTH.,#289);
#277=SURFACE_STYLE_USAGE(.BOTH.,#290);
#278=SURFACE_STYLE_USAGE(.BOTH.,#291);
#279=SURFACE_STYLE_USAGE(.BOTH.,#292);
#280=SURFACE_STYLE_USAGE(.BOTH.,#293);
#281=SURFACE_STYLE_USAGE(.BOTH.,#294);
#282=SURFACE_STYLE_USAGE(.BOTH.,#295);
#283=SURFACE_STYLE_USAGE(.BOTH.,#296);
#284=SURFACE_STYLE_USAGE(.BOTH.,#297);
#285=SURFACE_STYLE_USAGE(.BOTH.,#298);
#286=SURFACE_STYLE_USAGE(.BOTH.,#299);
#287=SURFACE_STYLE_USAGE(.BOTH.,#300);
#288=SURFACE_STYLE_USAGE(.BOTH.,#301);
#289=SURFACE_SIDE_STYLE('',(#302));
#290=SURFACE_SIDE_STYLE('',(#303));
#291=SURFACE_SIDE_STYLE('',(#304));
#292=SURFACE_SIDE_STYLE('',(#305));
#293=SURFACE_SIDE_STYLE('',(#306));
#294=SURFACE_SIDE_STYLE('',(#307));
#295=SURFACE_SIDE_STYLE('',(#308));
#296=SURFACE_SIDE_STYLE('',(#309));
#297=SURFACE_SIDE_STYLE('',(#310));
#298=SURFACE_SIDE_STYLE('',(#311));
#299=SURFACE_SIDE_STYLE('',(#312));
#300=SURFACE_SIDE_STYLE('',(#313));
#301=SURFACE_SIDE_STYLE('',(#314));
#302=SURFACE_STYLE_FILL_AREA(#315);
#303=SURFACE_STYLE_FILL_AREA(#316);
#304=SURFACE_STYLE_FILL_AREA(#317);
#305=SURFACE_STYLE_FILL_AREA(#318);
#306=SURFACE_STYLE_FILL_AREA(#319);
#307=SURFACE_STYLE_FILL_AREA(#320);
#308=SURFACE_STYLE_FILL_AREA(#321);
#309=SURFACE_STYLE_FILL_AREA(#322);
#310=SURFACE_STYLE_FILL_AREA(#323);
#311=SURFACE_STYLE_FILL_AREA(#324);
#312=SURFACE_STYLE_FILL_AREA(#325);
#313=SURFACE_STYLE_FILL_AREA(#326);
#314=SURFACE_STYLE_FILL_AREA(#327);
#315=FILL_AREA_STYLE('Acier - Satin\X\E9',(#328));
#316=FILL_AREA_STYLE('Gold - Polished (1) (2) (1)',(#329));
#317=FILL_AREA_STYLE('Plastique - Brillant (bleu) (1)',(#330));
#318=FILL_AREA_STYLE('Gold - Polished (1) (1)',(#331));
#319=FILL_AREA_STYLE('Silicone (blanc)',(#332));
#320=FILL_AREA_STYLE('Gold - Polished (1) (1)',(#333));
#321=FILL_AREA_STYLE('Plastique - Brillant (bleu)',(#334));
#322=FILL_AREA_STYLE('Acier inoxydable - Satin\X\E9',(#335));
#323=FILL_AREA_STYLE('Cuivre - Brut',(#336));
#324=FILL_AREA_STYLE('Peinture - Brillant \X\E9maill\X\E9 (vert)',(#337));
#325=FILL_AREA_STYLE('Opaque(8,8,8)',(#338));
#326=FILL_AREA_STYLE('Caoutchouc - Souple (1)',(#339));
#327=FILL_AREA_STYLE('Caoutchouc - Souple',(#340));
#328=FILL_AREA_STYLE_COLOUR('Acier - Satin\X\E9',#341);
#329=FILL_AREA_STYLE_COLOUR('Gold - Polished (1) (2) (1)',#342);
#330=FILL_AREA_STYLE_COLOUR('Plastique - Brillant (bleu) (1)',#343);
#331=FILL_AREA_STYLE_COLOUR('Gold - Polished (1) (1)',#344);
#332=FILL_AREA_STYLE_COLOUR('Silicone (blanc)',#345);
#333=FILL_AREA_STYLE_COLOUR('Gold - Polished (1) (1)',#346);
#334=FILL_AREA_STYLE_COLOUR('Plastique - Brillant (bleu)',#347);
#335=FILL_AREA_STYLE_COLOUR('Acier inoxydable - Satin\X\E9',#348);
#336=FILL_AREA_STYLE_COLOUR('Cuivre - Brut',#349);
#337=FILL_AREA_STYLE_COLOUR('Peinture - Brillant \X\E9maill\X\E9 (vert
)',#350);
#338=FILL_AREA_STYLE_COLOUR('Opaque(8,8,8)',#351);
#339=FILL_AREA_STYLE_COLOUR('Caoutchouc - Souple (1)',#352);
#340=FILL_AREA_STYLE_COLOUR('Caoutchouc - Souple',#353);
#341=COLOUR_RGB('Acier - Satin\X\E9',0.627450980392157,0.627450980392157,
0.627450980392157);
#342=COLOUR_RGB('Gold - Polished (1) (2) (1)',0.984313725490196,1.,0.0431372549019608);
#343=COLOUR_RGB('Plastique - Brillant (bleu) (1)',0.,0.568627450980392,
1.);
#344=COLOUR_RGB('Gold - Polished (1) (1)',0.243137254901961,0.784313725490196,
0.109803921568627);
#345=COLOUR_RGB('Silicone (blanc)',0.964705882352941,0.964705882352941,
0.952941176470588);
#346=COLOUR_RGB('Gold - Polished (1) (1)',0.635294117647059,1.,0.545098039215686);
#347=COLOUR_RGB('Plastique - Brillant (bleu)',0.,1.,1.);
#348=COLOUR_RGB('Acier inoxydable - Satin\X\E9',0.796078431372549,0.796078431372549,
0.796078431372549);
#349=COLOUR_RGB('Cuivre - Brut',0.,0.,0.);
#350=COLOUR_RGB('Peinture - Brillant \X\E9maill\X\E9 (vert)',0.266666666666667,
0.588235294117647,0.282352941176471);
#351=COLOUR_RGB('Opaque(8,8,8)',0.0313725490196078,0.0313725490196078,0.0313725490196078);
#352=COLOUR_RGB('Caoutchouc - Souple (1)',1.,0.,0.);
#353=COLOUR_RGB('Caoutchouc - Souple',0.152941176470588,0.152941176470588,
0.152941176470588);
ENDSEC;
END-ISO-10303-21;
