ISO-10303-21;
HEADER;
/* Generated by software containing ST-Developer
 * from STEP Tools, Inc. (www.steptools.com) 
 */

FILE_DESCRIPTION(
/* description */ (''),
/* implementation_level */ '2;1');

FILE_NAME(
/* name */ 'C:/Projets/N-machine/test devis/coupleur_disque.step',
/* time_stamp */ '2020-10-02T17:02:22+02:00',
/* author */ (''),
/* organization */ (''),
/* preprocessor_version */ 'ST-DEVELOPER v18.1',
/* originating_system */ 'Autodesk Translation Framework v9.3.0.1241',
/* authorisation */ '');

FILE_SCHEMA (('AUTOMOTIVE_DESIGN { 1 0 10303 214 3 1 1 }'));
ENDSEC;

DATA;
#10=MECHANICAL_DESIGN_GEOMETRIC_PRESENTATION_REPRESENTATION('',(#13),#541);
#11=SHAPE_REPRESENTATION_RELATIONSHIP('SRR','None',#548,#12);
#12=ADVANCED_BREP_SHAPE_REPRESENTATION('',(#14),#540);
#13=STYLED_ITEM('',(#557),#14);
#14=MANIFOLD_SOLID_BREP('Body1',#291);
#15=FACE_BOUND('',#54,.T.);
#16=FACE_BOUND('',#58,.T.);
#17=FACE_BOUND('',#66,.T.);
#18=FACE_BOUND('',#69,.T.);
#19=FACE_BOUND('',#70,.T.);
#20=FACE_BOUND('',#71,.T.);
#21=FACE_BOUND('',#72,.T.);
#22=FACE_BOUND('',#73,.T.);
#23=FACE_BOUND('',#74,.T.);
#24=FACE_BOUND('',#75,.T.);
#25=FACE_BOUND('',#77,.T.);
#26=FACE_BOUND('',#78,.T.);
#27=FACE_BOUND('',#79,.T.);
#28=FACE_BOUND('',#80,.T.);
#29=FACE_BOUND('',#81,.T.);
#30=FACE_BOUND('',#82,.T.);
#31=FACE_BOUND('',#83,.T.);
#32=PLANE('',#307);
#33=PLANE('',#308);
#34=PLANE('',#314);
#35=PLANE('',#339);
#36=PLANE('',#340);
#37=FACE_OUTER_BOUND('',#52,.T.);
#38=FACE_OUTER_BOUND('',#53,.T.);
#39=FACE_OUTER_BOUND('',#55,.T.);
#40=FACE_OUTER_BOUND('',#56,.T.);
#41=FACE_OUTER_BOUND('',#57,.T.);
#42=FACE_OUTER_BOUND('',#59,.T.);
#43=FACE_OUTER_BOUND('',#60,.T.);
#44=FACE_OUTER_BOUND('',#61,.T.);
#45=FACE_OUTER_BOUND('',#62,.T.);
#46=FACE_OUTER_BOUND('',#63,.T.);
#47=FACE_OUTER_BOUND('',#64,.T.);
#48=FACE_OUTER_BOUND('',#65,.T.);
#49=FACE_OUTER_BOUND('',#67,.T.);
#50=FACE_OUTER_BOUND('',#68,.T.);
#51=FACE_OUTER_BOUND('',#76,.T.);
#52=EDGE_LOOP('',(#194,#195,#196,#197));
#53=EDGE_LOOP('',(#198,#199,#200,#201));
#54=EDGE_LOOP('',(#202));
#55=EDGE_LOOP('',(#203,#204));
#56=EDGE_LOOP('',(#205,#206,#207,#208,#209,#210,#211,#212));
#57=EDGE_LOOP('',(#213,#214,#215));
#58=EDGE_LOOP('',(#216));
#59=EDGE_LOOP('',(#217,#218,#219,#220));
#60=EDGE_LOOP('',(#221,#222,#223,#224));
#61=EDGE_LOOP('',(#225,#226,#227,#228));
#62=EDGE_LOOP('',(#229,#230,#231,#232));
#63=EDGE_LOOP('',(#233,#234,#235,#236));
#64=EDGE_LOOP('',(#237,#238,#239,#240));
#65=EDGE_LOOP('',(#241,#242,#243,#244));
#66=EDGE_LOOP('',(#245));
#67=EDGE_LOOP('',(#246,#247,#248,#249));
#68=EDGE_LOOP('',(#250));
#69=EDGE_LOOP('',(#251));
#70=EDGE_LOOP('',(#252));
#71=EDGE_LOOP('',(#253));
#72=EDGE_LOOP('',(#254));
#73=EDGE_LOOP('',(#255));
#74=EDGE_LOOP('',(#256));
#75=EDGE_LOOP('',(#257));
#76=EDGE_LOOP('',(#258));
#77=EDGE_LOOP('',(#259));
#78=EDGE_LOOP('',(#260));
#79=EDGE_LOOP('',(#261));
#80=EDGE_LOOP('',(#262));
#81=EDGE_LOOP('',(#263));
#82=EDGE_LOOP('',(#264));
#83=EDGE_LOOP('',(#265));
#84=B_SPLINE_CURVE_WITH_KNOTS('',3,(#435,#436,#437,#438,#439,#440,#441,
#442,#443,#444,#445,#446,#447,#448,#449,#450,#451,#452,#453,#454,#455,#456,
#457,#458,#459,#460,#461,#462,#463,#464,#465,#466,#467,#468),
 .UNSPECIFIED.,.T.,.F.,(4,2,2,2,2,2,2,2,2,2,2,2,2,2,2,2,4),(0.,0.0946120580087934,
0.189224116017587,0.283822945575014,0.378421775132442,0.47302060468987,
0.567619434247297,0.662231492256091,0.756843550264884,0.851455608273677,
0.94606766628247,1.0406664958399,1.13526532539733,1.22986415495475,1.32446298451218,
1.41907504252097,1.51368710052977),.UNSPECIFIED.);
#85=LINE('',#434,#99);
#86=LINE('',#472,#100);
#87=LINE('',#474,#101);
#88=LINE('',#476,#102);
#89=LINE('',#477,#103);
#90=LINE('',#484,#104);
#91=LINE('',#494,#105);
#92=LINE('',#500,#106);
#93=LINE('',#506,#107);
#94=LINE('',#512,#108);
#95=LINE('',#518,#109);
#96=LINE('',#524,#110);
#97=LINE('',#528,#111);
#98=LINE('',#534,#112);
#99=VECTOR('',#347,2.5);
#100=VECTOR('',#350,10.);
#101=VECTOR('',#351,10.);
#102=VECTOR('',#352,10.);
#103=VECTOR('',#353,10.);
#104=VECTOR('',#362,22.5);
#105=VECTOR('',#375,3.99999999999999);
#106=VECTOR('',#382,4.);
#107=VECTOR('',#389,3.99999999999999);
#108=VECTOR('',#396,4.);
#109=VECTOR('',#403,3.99999999999999);
#110=VECTOR('',#410,3.99999999999999);
#111=VECTOR('',#415,10.);
#112=VECTOR('',#422,55.);
#113=CIRCLE('',#306,2.5);
#114=CIRCLE('',#309,22.5);
#115=CIRCLE('',#311,22.5);
#116=CIRCLE('',#312,22.5);
#117=CIRCLE('',#313,22.5);
#118=CIRCLE('',#315,10.);
#119=CIRCLE('',#317,3.99999999999999);
#120=CIRCLE('',#318,3.99999999999999);
#121=CIRCLE('',#320,4.);
#122=CIRCLE('',#321,4.);
#123=CIRCLE('',#323,3.99999999999999);
#124=CIRCLE('',#324,3.99999999999999);
#125=CIRCLE('',#326,4.);
#126=CIRCLE('',#327,4.);
#127=CIRCLE('',#329,3.99999999999999);
#128=CIRCLE('',#330,3.99999999999999);
#129=CIRCLE('',#332,3.99999999999999);
#130=CIRCLE('',#333,3.99999999999999);
#131=CIRCLE('',#335,10.);
#132=CIRCLE('',#337,55.);
#133=CIRCLE('',#338,55.);
#134=VERTEX_POINT('',#431);
#135=VERTEX_POINT('',#433);
#136=VERTEX_POINT('',#470);
#137=VERTEX_POINT('',#471);
#138=VERTEX_POINT('',#473);
#139=VERTEX_POINT('',#475);
#140=VERTEX_POINT('',#481);
#141=VERTEX_POINT('',#483);
#142=VERTEX_POINT('',#488);
#143=VERTEX_POINT('',#491);
#144=VERTEX_POINT('',#493);
#145=VERTEX_POINT('',#497);
#146=VERTEX_POINT('',#499);
#147=VERTEX_POINT('',#503);
#148=VERTEX_POINT('',#505);
#149=VERTEX_POINT('',#509);
#150=VERTEX_POINT('',#511);
#151=VERTEX_POINT('',#515);
#152=VERTEX_POINT('',#517);
#153=VERTEX_POINT('',#521);
#154=VERTEX_POINT('',#523);
#155=VERTEX_POINT('',#527);
#156=VERTEX_POINT('',#531);
#157=VERTEX_POINT('',#533);
#158=EDGE_CURVE('',#134,#134,#113,.T.);
#159=EDGE_CURVE('',#134,#135,#85,.T.);
#160=EDGE_CURVE('',#135,#135,#84,.T.);
#161=EDGE_CURVE('',#136,#137,#86,.T.);
#162=EDGE_CURVE('',#138,#136,#87,.T.);
#163=EDGE_CURVE('',#139,#138,#88,.T.);
#164=EDGE_CURVE('',#137,#139,#89,.T.);
#165=EDGE_CURVE('',#139,#138,#114,.T.);
#166=EDGE_CURVE('',#140,#136,#115,.T.);
#167=EDGE_CURVE('',#140,#141,#90,.T.);
#168=EDGE_CURVE('',#141,#141,#116,.T.);
#169=EDGE_CURVE('',#137,#140,#117,.T.);
#170=EDGE_CURVE('',#142,#142,#118,.T.);
#171=EDGE_CURVE('',#143,#143,#119,.T.);
#172=EDGE_CURVE('',#143,#144,#91,.T.);
#173=EDGE_CURVE('',#144,#144,#120,.T.);
#174=EDGE_CURVE('',#145,#145,#121,.T.);
#175=EDGE_CURVE('',#145,#146,#92,.T.);
#176=EDGE_CURVE('',#146,#146,#122,.T.);
#177=EDGE_CURVE('',#147,#147,#123,.T.);
#178=EDGE_CURVE('',#147,#148,#93,.T.);
#179=EDGE_CURVE('',#148,#148,#124,.T.);
#180=EDGE_CURVE('',#149,#149,#125,.T.);
#181=EDGE_CURVE('',#149,#150,#94,.T.);
#182=EDGE_CURVE('',#150,#150,#126,.T.);
#183=EDGE_CURVE('',#151,#151,#127,.T.);
#184=EDGE_CURVE('',#151,#152,#95,.T.);
#185=EDGE_CURVE('',#152,#152,#128,.T.);
#186=EDGE_CURVE('',#153,#153,#129,.T.);
#187=EDGE_CURVE('',#153,#154,#96,.T.);
#188=EDGE_CURVE('',#154,#154,#130,.T.);
#189=EDGE_CURVE('',#142,#155,#97,.T.);
#190=EDGE_CURVE('',#155,#155,#131,.T.);
#191=EDGE_CURVE('',#156,#156,#132,.T.);
#192=EDGE_CURVE('',#156,#157,#98,.T.);
#193=EDGE_CURVE('',#157,#157,#133,.T.);
#194=ORIENTED_EDGE('',*,*,#158,.F.);
#195=ORIENTED_EDGE('',*,*,#159,.T.);
#196=ORIENTED_EDGE('',*,*,#160,.F.);
#197=ORIENTED_EDGE('',*,*,#159,.F.);
#198=ORIENTED_EDGE('',*,*,#161,.F.);
#199=ORIENTED_EDGE('',*,*,#162,.F.);
#200=ORIENTED_EDGE('',*,*,#163,.F.);
#201=ORIENTED_EDGE('',*,*,#164,.F.);
#202=ORIENTED_EDGE('',*,*,#158,.T.);
#203=ORIENTED_EDGE('',*,*,#163,.T.);
#204=ORIENTED_EDGE('',*,*,#165,.F.);
#205=ORIENTED_EDGE('',*,*,#164,.T.);
#206=ORIENTED_EDGE('',*,*,#165,.T.);
#207=ORIENTED_EDGE('',*,*,#162,.T.);
#208=ORIENTED_EDGE('',*,*,#166,.F.);
#209=ORIENTED_EDGE('',*,*,#167,.T.);
#210=ORIENTED_EDGE('',*,*,#168,.F.);
#211=ORIENTED_EDGE('',*,*,#167,.F.);
#212=ORIENTED_EDGE('',*,*,#169,.F.);
#213=ORIENTED_EDGE('',*,*,#161,.T.);
#214=ORIENTED_EDGE('',*,*,#169,.T.);
#215=ORIENTED_EDGE('',*,*,#166,.T.);
#216=ORIENTED_EDGE('',*,*,#170,.T.);
#217=ORIENTED_EDGE('',*,*,#171,.F.);
#218=ORIENTED_EDGE('',*,*,#172,.T.);
#219=ORIENTED_EDGE('',*,*,#173,.T.);
#220=ORIENTED_EDGE('',*,*,#172,.F.);
#221=ORIENTED_EDGE('',*,*,#174,.F.);
#222=ORIENTED_EDGE('',*,*,#175,.T.);
#223=ORIENTED_EDGE('',*,*,#176,.T.);
#224=ORIENTED_EDGE('',*,*,#175,.F.);
#225=ORIENTED_EDGE('',*,*,#177,.F.);
#226=ORIENTED_EDGE('',*,*,#178,.T.);
#227=ORIENTED_EDGE('',*,*,#179,.T.);
#228=ORIENTED_EDGE('',*,*,#178,.F.);
#229=ORIENTED_EDGE('',*,*,#180,.F.);
#230=ORIENTED_EDGE('',*,*,#181,.T.);
#231=ORIENTED_EDGE('',*,*,#182,.T.);
#232=ORIENTED_EDGE('',*,*,#181,.F.);
#233=ORIENTED_EDGE('',*,*,#183,.F.);
#234=ORIENTED_EDGE('',*,*,#184,.T.);
#235=ORIENTED_EDGE('',*,*,#185,.T.);
#236=ORIENTED_EDGE('',*,*,#184,.F.);
#237=ORIENTED_EDGE('',*,*,#186,.F.);
#238=ORIENTED_EDGE('',*,*,#187,.T.);
#239=ORIENTED_EDGE('',*,*,#188,.T.);
#240=ORIENTED_EDGE('',*,*,#187,.F.);
#241=ORIENTED_EDGE('',*,*,#170,.F.);
#242=ORIENTED_EDGE('',*,*,#189,.T.);
#243=ORIENTED_EDGE('',*,*,#190,.T.);
#244=ORIENTED_EDGE('',*,*,#189,.F.);
#245=ORIENTED_EDGE('',*,*,#160,.T.);
#246=ORIENTED_EDGE('',*,*,#191,.F.);
#247=ORIENTED_EDGE('',*,*,#192,.T.);
#248=ORIENTED_EDGE('',*,*,#193,.T.);
#249=ORIENTED_EDGE('',*,*,#192,.F.);
#250=ORIENTED_EDGE('',*,*,#191,.T.);
#251=ORIENTED_EDGE('',*,*,#168,.T.);
#252=ORIENTED_EDGE('',*,*,#186,.T.);
#253=ORIENTED_EDGE('',*,*,#183,.T.);
#254=ORIENTED_EDGE('',*,*,#180,.T.);
#255=ORIENTED_EDGE('',*,*,#177,.T.);
#256=ORIENTED_EDGE('',*,*,#174,.T.);
#257=ORIENTED_EDGE('',*,*,#171,.T.);
#258=ORIENTED_EDGE('',*,*,#193,.F.);
#259=ORIENTED_EDGE('',*,*,#190,.F.);
#260=ORIENTED_EDGE('',*,*,#188,.F.);
#261=ORIENTED_EDGE('',*,*,#185,.F.);
#262=ORIENTED_EDGE('',*,*,#182,.F.);
#263=ORIENTED_EDGE('',*,*,#179,.F.);
#264=ORIENTED_EDGE('',*,*,#176,.F.);
#265=ORIENTED_EDGE('',*,*,#173,.F.);
#266=CYLINDRICAL_SURFACE('',#305,2.5);
#267=CYLINDRICAL_SURFACE('',#310,22.5);
#268=CYLINDRICAL_SURFACE('',#316,3.99999999999999);
#269=CYLINDRICAL_SURFACE('',#319,4.);
#270=CYLINDRICAL_SURFACE('',#322,3.99999999999999);
#271=CYLINDRICAL_SURFACE('',#325,4.);
#272=CYLINDRICAL_SURFACE('',#328,3.99999999999999);
#273=CYLINDRICAL_SURFACE('',#331,3.99999999999999);
#274=CYLINDRICAL_SURFACE('',#334,10.);
#275=CYLINDRICAL_SURFACE('',#336,55.);
#276=ADVANCED_FACE('',(#37),#266,.F.);
#277=ADVANCED_FACE('',(#38,#15),#32,.F.);
#278=ADVANCED_FACE('',(#39),#33,.T.);
#279=ADVANCED_FACE('',(#40),#267,.T.);
#280=ADVANCED_FACE('',(#41,#16),#34,.T.);
#281=ADVANCED_FACE('',(#42),#268,.F.);
#282=ADVANCED_FACE('',(#43),#269,.F.);
#283=ADVANCED_FACE('',(#44),#270,.F.);
#284=ADVANCED_FACE('',(#45),#271,.F.);
#285=ADVANCED_FACE('',(#46),#272,.F.);
#286=ADVANCED_FACE('',(#47),#273,.F.);
#287=ADVANCED_FACE('',(#48,#17),#274,.F.);
#288=ADVANCED_FACE('',(#49),#275,.T.);
#289=ADVANCED_FACE('',(#50,#18,#19,#20,#21,#22,#23,#24),#35,.T.);
#290=ADVANCED_FACE('',(#51,#25,#26,#27,#28,#29,#30,#31),#36,.F.);
#291=CLOSED_SHELL('',(#276,#277,#278,#279,#280,#281,#282,#283,#284,#285,
#286,#287,#288,#289,#290));
#292=DERIVED_UNIT_ELEMENT(#294,1.);
#293=DERIVED_UNIT_ELEMENT(#543,3.);
#294=(
MASS_UNIT()
NAMED_UNIT(*)
SI_UNIT(.KILO.,.GRAM.)
);
#295=DERIVED_UNIT((#292,#293));
#296=MEASURE_REPRESENTATION_ITEM('density measure',
POSITIVE_RATIO_MEASURE(7850.),#295);
#297=PROPERTY_DEFINITION_REPRESENTATION(#302,#299);
#298=PROPERTY_DEFINITION_REPRESENTATION(#303,#300);
#299=REPRESENTATION('material name',(#301),#540);
#300=REPRESENTATION('density',(#296),#540);
#301=DESCRIPTIVE_REPRESENTATION_ITEM('Steel','Steel');
#302=PROPERTY_DEFINITION('material property','material name',#550);
#303=PROPERTY_DEFINITION('material property','density of part',#550);
#304=AXIS2_PLACEMENT_3D('placement',#429,#341,#342);
#305=AXIS2_PLACEMENT_3D('',#430,#343,#344);
#306=AXIS2_PLACEMENT_3D('',#432,#345,#346);
#307=AXIS2_PLACEMENT_3D('',#469,#348,#349);
#308=AXIS2_PLACEMENT_3D('',#478,#354,#355);
#309=AXIS2_PLACEMENT_3D('',#479,#356,#357);
#310=AXIS2_PLACEMENT_3D('',#480,#358,#359);
#311=AXIS2_PLACEMENT_3D('',#482,#360,#361);
#312=AXIS2_PLACEMENT_3D('',#485,#363,#364);
#313=AXIS2_PLACEMENT_3D('',#486,#365,#366);
#314=AXIS2_PLACEMENT_3D('',#487,#367,#368);
#315=AXIS2_PLACEMENT_3D('',#489,#369,#370);
#316=AXIS2_PLACEMENT_3D('',#490,#371,#372);
#317=AXIS2_PLACEMENT_3D('',#492,#373,#374);
#318=AXIS2_PLACEMENT_3D('',#495,#376,#377);
#319=AXIS2_PLACEMENT_3D('',#496,#378,#379);
#320=AXIS2_PLACEMENT_3D('',#498,#380,#381);
#321=AXIS2_PLACEMENT_3D('',#501,#383,#384);
#322=AXIS2_PLACEMENT_3D('',#502,#385,#386);
#323=AXIS2_PLACEMENT_3D('',#504,#387,#388);
#324=AXIS2_PLACEMENT_3D('',#507,#390,#391);
#325=AXIS2_PLACEMENT_3D('',#508,#392,#393);
#326=AXIS2_PLACEMENT_3D('',#510,#394,#395);
#327=AXIS2_PLACEMENT_3D('',#513,#397,#398);
#328=AXIS2_PLACEMENT_3D('',#514,#399,#400);
#329=AXIS2_PLACEMENT_3D('',#516,#401,#402);
#330=AXIS2_PLACEMENT_3D('',#519,#404,#405);
#331=AXIS2_PLACEMENT_3D('',#520,#406,#407);
#332=AXIS2_PLACEMENT_3D('',#522,#408,#409);
#333=AXIS2_PLACEMENT_3D('',#525,#411,#412);
#334=AXIS2_PLACEMENT_3D('',#526,#413,#414);
#335=AXIS2_PLACEMENT_3D('',#529,#416,#417);
#336=AXIS2_PLACEMENT_3D('',#530,#418,#419);
#337=AXIS2_PLACEMENT_3D('',#532,#420,#421);
#338=AXIS2_PLACEMENT_3D('',#535,#423,#424);
#339=AXIS2_PLACEMENT_3D('',#536,#425,#426);
#340=AXIS2_PLACEMENT_3D('',#537,#427,#428);
#341=DIRECTION('axis',(0.,0.,1.));
#342=DIRECTION('refdir',(1.,0.,0.));
#343=DIRECTION('center_axis',(0.,-1.,0.));
#344=DIRECTION('ref_axis',(-1.,0.,0.));
#345=DIRECTION('center_axis',(0.,-1.,0.));
#346=DIRECTION('ref_axis',(-1.,0.,0.));
#347=DIRECTION('',(0.,-1.,0.));
#348=DIRECTION('center_axis',(0.,-1.,0.));
#349=DIRECTION('ref_axis',(1.,0.,0.));
#350=DIRECTION('',(-1.,0.,0.));
#351=DIRECTION('',(0.,0.,1.));
#352=DIRECTION('',(1.,0.,0.));
#353=DIRECTION('',(0.,0.,-1.));
#354=DIRECTION('center_axis',(0.,0.,1.));
#355=DIRECTION('ref_axis',(1.,0.,0.));
#356=DIRECTION('center_axis',(0.,0.,-1.));
#357=DIRECTION('ref_axis',(1.,0.,0.));
#358=DIRECTION('center_axis',(0.,0.,1.));
#359=DIRECTION('ref_axis',(1.,0.,0.));
#360=DIRECTION('center_axis',(0.,0.,1.));
#361=DIRECTION('ref_axis',(1.,0.,0.));
#362=DIRECTION('',(0.,0.,-1.));
#363=DIRECTION('center_axis',(0.,0.,-1.));
#364=DIRECTION('ref_axis',(1.,0.,0.));
#365=DIRECTION('center_axis',(0.,0.,1.));
#366=DIRECTION('ref_axis',(1.,0.,0.));
#367=DIRECTION('center_axis',(0.,0.,1.));
#368=DIRECTION('ref_axis',(1.,0.,0.));
#369=DIRECTION('center_axis',(0.,0.,-1.));
#370=DIRECTION('ref_axis',(1.,0.,0.));
#371=DIRECTION('center_axis',(0.,0.,1.));
#372=DIRECTION('ref_axis',(1.,0.,0.));
#373=DIRECTION('center_axis',(0.,0.,-1.));
#374=DIRECTION('ref_axis',(1.,0.,0.));
#375=DIRECTION('',(0.,0.,-1.));
#376=DIRECTION('center_axis',(0.,0.,-1.));
#377=DIRECTION('ref_axis',(1.,0.,0.));
#378=DIRECTION('center_axis',(0.,0.,1.));
#379=DIRECTION('ref_axis',(1.,0.,0.));
#380=DIRECTION('center_axis',(0.,0.,-1.));
#381=DIRECTION('ref_axis',(1.,0.,0.));
#382=DIRECTION('',(0.,0.,-1.));
#383=DIRECTION('center_axis',(0.,0.,-1.));
#384=DIRECTION('ref_axis',(1.,0.,0.));
#385=DIRECTION('center_axis',(0.,0.,1.));
#386=DIRECTION('ref_axis',(1.,0.,0.));
#387=DIRECTION('center_axis',(0.,0.,-1.));
#388=DIRECTION('ref_axis',(1.,0.,0.));
#389=DIRECTION('',(0.,0.,-1.));
#390=DIRECTION('center_axis',(0.,0.,-1.));
#391=DIRECTION('ref_axis',(1.,0.,0.));
#392=DIRECTION('center_axis',(0.,0.,1.));
#393=DIRECTION('ref_axis',(1.,0.,0.));
#394=DIRECTION('center_axis',(0.,0.,-1.));
#395=DIRECTION('ref_axis',(1.,0.,0.));
#396=DIRECTION('',(0.,0.,-1.));
#397=DIRECTION('center_axis',(0.,0.,-1.));
#398=DIRECTION('ref_axis',(1.,0.,0.));
#399=DIRECTION('center_axis',(0.,0.,1.));
#400=DIRECTION('ref_axis',(1.,0.,0.));
#401=DIRECTION('center_axis',(0.,0.,-1.));
#402=DIRECTION('ref_axis',(1.,0.,0.));
#403=DIRECTION('',(0.,0.,-1.));
#404=DIRECTION('center_axis',(0.,0.,-1.));
#405=DIRECTION('ref_axis',(1.,0.,0.));
#406=DIRECTION('center_axis',(0.,0.,1.));
#407=DIRECTION('ref_axis',(1.,0.,0.));
#408=DIRECTION('center_axis',(0.,0.,-1.));
#409=DIRECTION('ref_axis',(1.,0.,0.));
#410=DIRECTION('',(0.,0.,-1.));
#411=DIRECTION('center_axis',(0.,0.,-1.));
#412=DIRECTION('ref_axis',(1.,0.,0.));
#413=DIRECTION('center_axis',(0.,0.,1.));
#414=DIRECTION('ref_axis',(1.,0.,0.));
#415=DIRECTION('',(0.,0.,-1.));
#416=DIRECTION('center_axis',(0.,0.,-1.));
#417=DIRECTION('ref_axis',(1.,0.,0.));
#418=DIRECTION('center_axis',(0.,0.,1.));
#419=DIRECTION('ref_axis',(1.,0.,0.));
#420=DIRECTION('center_axis',(0.,0.,1.));
#421=DIRECTION('ref_axis',(1.,0.,0.));
#422=DIRECTION('',(0.,0.,-1.));
#423=DIRECTION('center_axis',(0.,0.,1.));
#424=DIRECTION('ref_axis',(1.,0.,0.));
#425=DIRECTION('center_axis',(0.,0.,1.));
#426=DIRECTION('ref_axis',(1.,0.,0.));
#427=DIRECTION('center_axis',(0.,0.,1.));
#428=DIRECTION('ref_axis',(1.,0.,0.));
#429=CARTESIAN_POINT('',(0.,0.,0.));
#430=CARTESIAN_POINT('Origin',(0.,20.0409736894871,18.0000002682209));
#431=CARTESIAN_POINT('',(2.5,20.0409736894871,18.0000002682209));
#432=CARTESIAN_POINT('Origin',(0.,20.0409736894871,18.0000002682209));
#433=CARTESIAN_POINT('',(2.5,9.68245836551854,18.0000002682209));
#434=CARTESIAN_POINT('',(2.5,20.0409736894871,18.0000002682209));
#435=CARTESIAN_POINT('Ctrl Pts',(2.5,9.68245836551854,18.0000002682209));
#436=CARTESIAN_POINT('Ctrl Pts',(2.5,9.68245836551854,17.6846267415249));
#437=CARTESIAN_POINT('Ctrl Pts',(2.43669763522489,9.69947158664211,17.3491959981947));
#438=CARTESIAN_POINT('Ctrl Pts',(2.18115996279034,9.76011194447325,16.7336735556448));
#439=CARTESIAN_POINT('Ctrl Pts',(1.98899276956455,9.80277651290853,16.4534591318527));
#440=CARTESIAN_POINT('Ctrl Pts',(1.54657206767882,9.88223761669361,16.011038429967));
#441=CARTESIAN_POINT('Ctrl Pts',(1.26634476150511,9.92431259450842,15.8188471199527));
#442=CARTESIAN_POINT('Ctrl Pts',(0.650776639541241,9.9835915024489,15.5632918406458));
#443=CARTESIAN_POINT('Ctrl Pts',(0.315329431858092,10.,15.5000002682209));
#444=CARTESIAN_POINT('Ctrl Pts',(-0.315329431858092,10.,15.5000002682209));
#445=CARTESIAN_POINT('Ctrl Pts',(-0.650776639541239,9.9835915024489,15.5632918406458));
#446=CARTESIAN_POINT('Ctrl Pts',(-1.26634476150511,9.92431259450842,15.8188471199527));
#447=CARTESIAN_POINT('Ctrl Pts',(-1.54657206767882,9.88223761669361,16.011038429967));
#448=CARTESIAN_POINT('Ctrl Pts',(-1.98899276956455,9.80277651290853,16.4534591318527));
#449=CARTESIAN_POINT('Ctrl Pts',(-2.18115996279034,9.76011194447325,16.7336735556448));
#450=CARTESIAN_POINT('Ctrl Pts',(-2.43669763522489,9.69947158664211,17.3491959981947));
#451=CARTESIAN_POINT('Ctrl Pts',(-2.5,9.68245836551854,17.6846267415249));
#452=CARTESIAN_POINT('Ctrl Pts',(-2.5,9.68245836551854,18.3153737949169));
#453=CARTESIAN_POINT('Ctrl Pts',(-2.43669763522489,9.69947158664211,18.6508045382472));
#454=CARTESIAN_POINT('Ctrl Pts',(-2.18115996279034,9.76011194447325,19.266326980797));
#455=CARTESIAN_POINT('Ctrl Pts',(-1.98899276956455,9.80277651290853,19.5465414045891));
#456=CARTESIAN_POINT('Ctrl Pts',(-1.54657206767882,9.88223761669361,19.9889621064748));
#457=CARTESIAN_POINT('Ctrl Pts',(-1.26634476150511,9.92431259450842,20.1811534164891));
#458=CARTESIAN_POINT('Ctrl Pts',(-0.650776639541241,9.9835915024489,20.436708695796));
#459=CARTESIAN_POINT('Ctrl Pts',(-0.315329431858093,10.,20.5000002682209));
#460=CARTESIAN_POINT('Ctrl Pts',(0.31532943185809,10.,20.5000002682209));
#461=CARTESIAN_POINT('Ctrl Pts',(0.650776639541238,9.9835915024489,20.436708695796));
#462=CARTESIAN_POINT('Ctrl Pts',(1.26634476150511,9.92431259450842,20.1811534164891));
#463=CARTESIAN_POINT('Ctrl Pts',(1.54657206767882,9.88223761669361,19.9889621064748));
#464=CARTESIAN_POINT('Ctrl Pts',(1.98899276956454,9.80277651290853,19.5465414045891));
#465=CARTESIAN_POINT('Ctrl Pts',(2.18115996279034,9.76011194447325,19.266326980797));
#466=CARTESIAN_POINT('Ctrl Pts',(2.43669763522489,9.69947158664211,18.6508045382472));
#467=CARTESIAN_POINT('Ctrl Pts',(2.5,9.68245836551854,18.3153737949169));
#468=CARTESIAN_POINT('Ctrl Pts',(2.5,9.68245836551854,18.0000002682209));
#469=CARTESIAN_POINT('Origin',(-10.2278723876125,20.0409736894871,12.));
#470=CARTESIAN_POINT('',(10.2278723876125,20.0409736894871,25.));
#471=CARTESIAN_POINT('',(-10.2278723876125,20.0409736894871,25.));
#472=CARTESIAN_POINT('',(-5.11393619380624,20.0409736894871,25.));
#473=CARTESIAN_POINT('',(10.2278723876125,20.0409736894871,12.));
#474=CARTESIAN_POINT('',(10.2278723876125,20.0409736894871,0.));
#475=CARTESIAN_POINT('',(-10.2278723876125,20.0409736894871,12.));
#476=CARTESIAN_POINT('',(-10.2278723876125,20.0409736894871,12.));
#477=CARTESIAN_POINT('',(-10.2278723876125,20.0409736894871,0.));
#478=CARTESIAN_POINT('Origin',(0.,21.2704868447435,12.));
#479=CARTESIAN_POINT('Origin',(0.,0.,12.));
#480=CARTESIAN_POINT('Origin',(0.,0.,0.));
#481=CARTESIAN_POINT('',(-22.5,-2.75545529808154E-15,25.));
#482=CARTESIAN_POINT('Origin',(0.,0.,25.));
#483=CARTESIAN_POINT('',(-22.5,2.75545529808154E-15,6.));
#484=CARTESIAN_POINT('',(-22.5,-2.75545529808154E-15,0.));
#485=CARTESIAN_POINT('Origin',(0.,0.,6.));
#486=CARTESIAN_POINT('Origin',(0.,0.,25.));
#487=CARTESIAN_POINT('Origin',(0.,0.,25.));
#488=CARTESIAN_POINT('',(-10.,-1.22464679914735E-15,25.));
#489=CARTESIAN_POINT('Origin',(0.,0.,25.));
#490=CARTESIAN_POINT('Origin',(22.5,38.9711431702997,0.));
#491=CARTESIAN_POINT('',(18.5,38.9711431702997,6.));
#492=CARTESIAN_POINT('Origin',(22.5,38.9711431702997,6.));
#493=CARTESIAN_POINT('',(18.5,38.9711431702997,0.));
#494=CARTESIAN_POINT('',(18.5,38.9711431702997,0.));
#495=CARTESIAN_POINT('Origin',(22.5,38.9711431702997,0.));
#496=CARTESIAN_POINT('Origin',(-22.5,38.9711431702997,0.));
#497=CARTESIAN_POINT('',(-26.5,38.9711431702997,6.));
#498=CARTESIAN_POINT('Origin',(-22.5,38.9711431702997,6.));
#499=CARTESIAN_POINT('',(-26.5,38.9711431702997,0.));
#500=CARTESIAN_POINT('',(-26.5,38.9711431702997,0.));
#501=CARTESIAN_POINT('Origin',(-22.5,38.9711431702997,0.));
#502=CARTESIAN_POINT('Origin',(-45.,5.51091059616309E-15,0.));
#503=CARTESIAN_POINT('',(-49.,5.02105187650415E-15,6.));
#504=CARTESIAN_POINT('Origin',(-45.,5.51091059616309E-15,6.));
#505=CARTESIAN_POINT('',(-49.,5.02105187650415E-15,0.));
#506=CARTESIAN_POINT('',(-49.,5.02105187650415E-15,0.));
#507=CARTESIAN_POINT('Origin',(-45.,5.51091059616309E-15,0.));
#508=CARTESIAN_POINT('Origin',(-22.5,-38.9711431702997,0.));
#509=CARTESIAN_POINT('',(-26.5,-38.9711431702997,6.));
#510=CARTESIAN_POINT('Origin',(-22.5,-38.9711431702997,6.));
#511=CARTESIAN_POINT('',(-26.5,-38.9711431702997,0.));
#512=CARTESIAN_POINT('',(-26.5,-38.9711431702997,0.));
#513=CARTESIAN_POINT('Origin',(-22.5,-38.9711431702997,0.));
#514=CARTESIAN_POINT('Origin',(22.5,-38.9711431702998,0.));
#515=CARTESIAN_POINT('',(18.5,-38.9711431702998,6.));
#516=CARTESIAN_POINT('Origin',(22.5,-38.9711431702998,6.));
#517=CARTESIAN_POINT('',(18.5,-38.9711431702998,0.));
#518=CARTESIAN_POINT('',(18.5,-38.9711431702998,0.));
#519=CARTESIAN_POINT('Origin',(22.5,-38.9711431702998,0.));
#520=CARTESIAN_POINT('Origin',(45.,0.,0.));
#521=CARTESIAN_POINT('',(41.,-4.89858719658941E-16,6.));
#522=CARTESIAN_POINT('Origin',(45.,0.,6.));
#523=CARTESIAN_POINT('',(41.,-4.89858719658941E-16,0.));
#524=CARTESIAN_POINT('',(41.,-4.89858719658941E-16,0.));
#525=CARTESIAN_POINT('Origin',(45.,0.,0.));
#526=CARTESIAN_POINT('Origin',(0.,0.,0.));
#527=CARTESIAN_POINT('',(-10.,-1.22464679914735E-15,0.));
#528=CARTESIAN_POINT('',(-10.,-1.22464679914735E-15,0.));
#529=CARTESIAN_POINT('Origin',(0.,0.,0.));
#530=CARTESIAN_POINT('Origin',(0.,0.,0.));
#531=CARTESIAN_POINT('',(-55.,-6.73555739531044E-15,6.));
#532=CARTESIAN_POINT('Origin',(0.,0.,6.));
#533=CARTESIAN_POINT('',(-55.,-6.73555739531044E-15,0.));
#534=CARTESIAN_POINT('',(-55.,-6.73555739531044E-15,0.));
#535=CARTESIAN_POINT('Origin',(0.,0.,0.));
#536=CARTESIAN_POINT('Origin',(0.,0.,6.));
#537=CARTESIAN_POINT('Origin',(0.,0.,0.));
#538=UNCERTAINTY_MEASURE_WITH_UNIT(LENGTH_MEASURE(0.01),#542,
'DISTANCE_ACCURACY_VALUE',
'Maximum model space distance between geometric entities at asserted c
onnectivities');
#539=UNCERTAINTY_MEASURE_WITH_UNIT(LENGTH_MEASURE(0.01),#542,
'DISTANCE_ACCURACY_VALUE',
'Maximum model space distance between geometric entities at asserted c
onnectivities');
#540=(
GEOMETRIC_REPRESENTATION_CONTEXT(3)
GLOBAL_UNCERTAINTY_ASSIGNED_CONTEXT((#538))
GLOBAL_UNIT_ASSIGNED_CONTEXT((#542,#544,#545))
REPRESENTATION_CONTEXT('','3D')
);
#541=(
GEOMETRIC_REPRESENTATION_CONTEXT(3)
GLOBAL_UNCERTAINTY_ASSIGNED_CONTEXT((#539))
GLOBAL_UNIT_ASSIGNED_CONTEXT((#542,#544,#545))
REPRESENTATION_CONTEXT('','3D')
);
#542=(
LENGTH_UNIT()
NAMED_UNIT(*)
SI_UNIT(.MILLI.,.METRE.)
);
#543=(
LENGTH_UNIT()
NAMED_UNIT(*)
SI_UNIT($,.METRE.)
);
#544=(
NAMED_UNIT(*)
PLANE_ANGLE_UNIT()
SI_UNIT($,.RADIAN.)
);
#545=(
NAMED_UNIT(*)
SI_UNIT($,.STERADIAN.)
SOLID_ANGLE_UNIT()
);
#546=SHAPE_DEFINITION_REPRESENTATION(#547,#548);
#547=PRODUCT_DEFINITION_SHAPE('',$,#550);
#548=SHAPE_REPRESENTATION('',(#304),#540);
#549=PRODUCT_DEFINITION_CONTEXT('part definition',#554,'design');
#550=PRODUCT_DEFINITION('FusionComponent','FusionComponent',#551,#549);
#551=PRODUCT_DEFINITION_FORMATION('',$,#556);
#552=PRODUCT_RELATED_PRODUCT_CATEGORY('FusionComponent',
'FusionComponent',(#556));
#553=APPLICATION_PROTOCOL_DEFINITION('international standard',
'automotive_design',2009,#554);
#554=APPLICATION_CONTEXT(
'Core Data for Automotive Mechanical Design Process');
#555=PRODUCT_CONTEXT('part definition',#554,'mechanical');
#556=PRODUCT('FusionComponent','FusionComponent',$,(#555));
#557=PRESENTATION_STYLE_ASSIGNMENT((#558));
#558=SURFACE_STYLE_USAGE(.BOTH.,#559);
#559=SURFACE_SIDE_STYLE('',(#560));
#560=SURFACE_STYLE_FILL_AREA(#561);
#561=FILL_AREA_STYLE('Steel - Satin',(#562));
#562=FILL_AREA_STYLE_COLOUR('Steel - Satin',#563);
#563=COLOUR_RGB('Steel - Satin',0.627450980392157,0.627450980392157,0.627450980392157);
ENDSEC;
END-ISO-10303-21;
