ISO-10303-21;
HEADER;
/* Generated by software containing ST-Developer
 * from STEP Tools, Inc. (www.steptools.com) 
 */
/* OPTION: strings as raw bytes, not using required /X/ escapes */

FILE_DESCRIPTION(
/* description */ ('Unknown'),
/* implementation_level */ '2;1');

FILE_NAME(
/* name */ 'TOLE SUPPORT',
/* time_stamp */ '2020-10-02T11:58:41+02:00',
/* author */ ('Unknown'),
/* organization */ ('Unknown'),
/* preprocessor_version */ 'ST-DEVELOPER v16.7',
/* originating_system */ 'DEX',
/* authorisation */ $);

FILE_SCHEMA (('AUTOMOTIVE_DESIGN {1 0 10303 214 3 1 1}'));
ENDSEC;

DATA;
#10=PROPERTY_DEFINITION_REPRESENTATION(#14,#12);
#11=PROPERTY_DEFINITION_REPRESENTATION(#15,#13);
#12=REPRESENTATION('',(#16),#695);
#13=REPRESENTATION('',(#17),#695);
#14=PROPERTY_DEFINITION('pmi validation property','',#700);
#15=PROPERTY_DEFINITION('pmi validation property','',#700);
#16=VALUE_REPRESENTATION_ITEM('number of annotations',COUNT_MEASURE(0.));
#17=VALUE_REPRESENTATION_ITEM('number of views',COUNT_MEASURE(0.));
#18=SHAPE_REPRESENTATION_RELATIONSHIP('','',#417,#19);
#19=ADVANCED_BREP_SHAPE_REPRESENTATION('',(#415),#695);
#20=CYLINDRICAL_SURFACE('',#447,2.001);
#21=CYLINDRICAL_SURFACE('',#448,0.00100000000000013);
#22=CYLINDRICAL_SURFACE('',#453,2.);
#23=CYLINDRICAL_SURFACE('',#454,2.);
#24=CYLINDRICAL_SURFACE('',#455,2.);
#25=CYLINDRICAL_SURFACE('',#456,2.);
#26=CYLINDRICAL_SURFACE('',#457,2.);
#27=CYLINDRICAL_SURFACE('',#458,2.);
#28=CYLINDRICAL_SURFACE('',#459,2.);
#29=CYLINDRICAL_SURFACE('',#460,2.);
#30=CIRCLE('',#420,0.00100000000000013);
#31=CIRCLE('',#421,2.001);
#32=CIRCLE('',#423,2.001);
#33=CIRCLE('',#424,0.00100000000000013);
#34=CIRCLE('',#426,2.);
#35=CIRCLE('',#427,2.);
#36=CIRCLE('',#428,2.);
#37=CIRCLE('',#429,2.);
#38=CIRCLE('',#430,2.);
#39=CIRCLE('',#431,2.);
#40=CIRCLE('',#434,2.);
#41=CIRCLE('',#435,2.);
#42=CIRCLE('',#436,2.);
#43=CIRCLE('',#437,2.);
#44=CIRCLE('',#438,2.);
#45=CIRCLE('',#439,2.);
#46=CIRCLE('',#441,2.);
#47=CIRCLE('',#442,2.);
#48=CIRCLE('',#444,2.);
#49=CIRCLE('',#445,2.);
#50=ORIENTED_EDGE('',*,*,#158,.F.);
#51=ORIENTED_EDGE('',*,*,#159,.T.);
#52=ORIENTED_EDGE('',*,*,#160,.T.);
#53=ORIENTED_EDGE('',*,*,#161,.T.);
#54=ORIENTED_EDGE('',*,*,#162,.T.);
#55=ORIENTED_EDGE('',*,*,#163,.F.);
#56=ORIENTED_EDGE('',*,*,#164,.T.);
#57=ORIENTED_EDGE('',*,*,#165,.T.);
#58=ORIENTED_EDGE('',*,*,#166,.F.);
#59=ORIENTED_EDGE('',*,*,#167,.F.);
#60=ORIENTED_EDGE('',*,*,#168,.F.);
#61=ORIENTED_EDGE('',*,*,#169,.T.);
#62=ORIENTED_EDGE('',*,*,#170,.T.);
#63=ORIENTED_EDGE('',*,*,#171,.T.);
#64=ORIENTED_EDGE('',*,*,#172,.T.);
#65=ORIENTED_EDGE('',*,*,#173,.T.);
#66=ORIENTED_EDGE('',*,*,#174,.T.);
#67=ORIENTED_EDGE('',*,*,#175,.T.);
#68=ORIENTED_EDGE('',*,*,#176,.F.);
#69=ORIENTED_EDGE('',*,*,#177,.T.);
#70=ORIENTED_EDGE('',*,*,#178,.F.);
#71=ORIENTED_EDGE('',*,*,#179,.T.);
#72=ORIENTED_EDGE('',*,*,#180,.T.);
#73=ORIENTED_EDGE('',*,*,#181,.T.);
#74=ORIENTED_EDGE('',*,*,#174,.F.);
#75=ORIENTED_EDGE('',*,*,#182,.T.);
#76=ORIENTED_EDGE('',*,*,#183,.T.);
#77=ORIENTED_EDGE('',*,*,#184,.T.);
#78=ORIENTED_EDGE('',*,*,#185,.F.);
#79=ORIENTED_EDGE('',*,*,#186,.F.);
#80=ORIENTED_EDGE('',*,*,#183,.F.);
#81=ORIENTED_EDGE('',*,*,#187,.T.);
#82=ORIENTED_EDGE('',*,*,#188,.F.);
#83=ORIENTED_EDGE('',*,*,#189,.T.);
#84=ORIENTED_EDGE('',*,*,#190,.F.);
#85=ORIENTED_EDGE('',*,*,#191,.F.);
#86=ORIENTED_EDGE('',*,*,#192,.T.);
#87=ORIENTED_EDGE('',*,*,#193,.T.);
#88=ORIENTED_EDGE('',*,*,#194,.T.);
#89=ORIENTED_EDGE('',*,*,#195,.T.);
#90=ORIENTED_EDGE('',*,*,#196,.T.);
#91=ORIENTED_EDGE('',*,*,#197,.T.);
#92=ORIENTED_EDGE('',*,*,#158,.T.);
#93=ORIENTED_EDGE('',*,*,#198,.T.);
#94=ORIENTED_EDGE('',*,*,#166,.T.);
#95=ORIENTED_EDGE('',*,*,#199,.T.);
#96=ORIENTED_EDGE('',*,*,#160,.F.);
#97=ORIENTED_EDGE('',*,*,#200,.T.);
#98=ORIENTED_EDGE('',*,*,#201,.F.);
#99=ORIENTED_EDGE('',*,*,#202,.T.);
#100=ORIENTED_EDGE('',*,*,#164,.F.);
#101=ORIENTED_EDGE('',*,*,#203,.F.);
#102=ORIENTED_EDGE('',*,*,#201,.T.);
#103=ORIENTED_EDGE('',*,*,#204,.T.);
#104=ORIENTED_EDGE('',*,*,#196,.F.);
#105=ORIENTED_EDGE('',*,*,#205,.T.);
#106=ORIENTED_EDGE('',*,*,#179,.F.);
#107=ORIENTED_EDGE('',*,*,#167,.T.);
#108=ORIENTED_EDGE('',*,*,#198,.F.);
#109=ORIENTED_EDGE('',*,*,#163,.T.);
#110=ORIENTED_EDGE('',*,*,#191,.T.);
#111=ORIENTED_EDGE('',*,*,#161,.F.);
#112=ORIENTED_EDGE('',*,*,#203,.T.);
#113=ORIENTED_EDGE('',*,*,#169,.F.);
#114=ORIENTED_EDGE('',*,*,#190,.T.);
#115=ORIENTED_EDGE('',*,*,#206,.T.);
#116=ORIENTED_EDGE('',*,*,#180,.F.);
#117=ORIENTED_EDGE('',*,*,#162,.F.);
#118=ORIENTED_EDGE('',*,*,#188,.T.);
#119=ORIENTED_EDGE('',*,*,#207,.T.);
#120=ORIENTED_EDGE('',*,*,#172,.F.);
#121=ORIENTED_EDGE('',*,*,#208,.T.);
#122=ORIENTED_EDGE('',*,*,#178,.T.);
#123=ORIENTED_EDGE('',*,*,#209,.T.);
#124=ORIENTED_EDGE('',*,*,#192,.F.);
#125=ORIENTED_EDGE('',*,*,#168,.T.);
#126=ORIENTED_EDGE('',*,*,#176,.T.);
#127=ORIENTED_EDGE('',*,*,#210,.T.);
#128=ORIENTED_EDGE('',*,*,#194,.F.);
#129=ORIENTED_EDGE('',*,*,#211,.T.);
#130=ORIENTED_EDGE('',*,*,#187,.F.);
#131=ORIENTED_EDGE('',*,*,#182,.F.);
#132=ORIENTED_EDGE('',*,*,#173,.F.);
#133=ORIENTED_EDGE('',*,*,#207,.F.);
#134=ORIENTED_EDGE('',*,*,#189,.F.);
#135=ORIENTED_EDGE('',*,*,#208,.F.);
#136=ORIENTED_EDGE('',*,*,#181,.F.);
#137=ORIENTED_EDGE('',*,*,#206,.F.);
#138=ORIENTED_EDGE('',*,*,#197,.F.);
#139=ORIENTED_EDGE('',*,*,#204,.F.);
#140=ORIENTED_EDGE('',*,*,#200,.F.);
#141=ORIENTED_EDGE('',*,*,#159,.F.);
#142=ORIENTED_EDGE('',*,*,#199,.F.);
#143=ORIENTED_EDGE('',*,*,#165,.F.);
#144=ORIENTED_EDGE('',*,*,#202,.F.);
#145=ORIENTED_EDGE('',*,*,#205,.F.);
#146=ORIENTED_EDGE('',*,*,#195,.F.);
#147=ORIENTED_EDGE('',*,*,#210,.F.);
#148=ORIENTED_EDGE('',*,*,#175,.F.);
#149=ORIENTED_EDGE('',*,*,#184,.F.);
#150=ORIENTED_EDGE('',*,*,#193,.F.);
#151=ORIENTED_EDGE('',*,*,#209,.F.);
#152=ORIENTED_EDGE('',*,*,#177,.F.);
#153=ORIENTED_EDGE('',*,*,#211,.F.);
#154=ORIENTED_EDGE('',*,*,#171,.F.);
#155=ORIENTED_EDGE('',*,*,#186,.T.);
#156=ORIENTED_EDGE('',*,*,#170,.F.);
#157=ORIENTED_EDGE('',*,*,#185,.T.);
#158=EDGE_CURVE('',#212,#213,#248,.T.);
#159=EDGE_CURVE('',#212,#214,#249,.T.);
#160=EDGE_CURVE('',#214,#215,#250,.T.);
#161=EDGE_CURVE('',#215,#216,#30,.F.);
#162=EDGE_CURVE('',#216,#217,#251,.T.);
#163=EDGE_CURVE('',#213,#217,#31,.T.);
#164=EDGE_CURVE('',#218,#219,#252,.T.);
#165=EDGE_CURVE('',#219,#220,#253,.F.);
#166=EDGE_CURVE('',#221,#220,#254,.T.);
#167=EDGE_CURVE('',#222,#221,#32,.T.);
#168=EDGE_CURVE('',#223,#222,#255,.T.);
#169=EDGE_CURVE('',#223,#218,#33,.T.);
#170=EDGE_CURVE('',#224,#224,#34,.T.);
#171=EDGE_CURVE('',#225,#225,#35,.T.);
#172=EDGE_CURVE('',#226,#227,#256,.T.);
#173=EDGE_CURVE('',#227,#228,#36,.T.);
#174=EDGE_CURVE('',#228,#229,#257,.T.);
#175=EDGE_CURVE('',#229,#230,#37,.T.);
#176=EDGE_CURVE('',#231,#230,#258,.T.);
#177=EDGE_CURVE('',#231,#232,#38,.T.);
#178=EDGE_CURVE('',#222,#232,#259,.T.);
#179=EDGE_CURVE('',#222,#217,#260,.T.);
#180=EDGE_CURVE('',#217,#233,#261,.T.);
#181=EDGE_CURVE('',#233,#226,#39,.T.);
#182=EDGE_CURVE('',#228,#234,#262,.F.);
#183=EDGE_CURVE('',#234,#235,#263,.T.);
#184=EDGE_CURVE('',#235,#229,#264,.T.);
#185=EDGE_CURVE('',#236,#236,#40,.F.);
#186=EDGE_CURVE('',#237,#237,#41,.F.);
#187=EDGE_CURVE('',#234,#238,#42,.F.);
#188=EDGE_CURVE('',#239,#238,#265,.T.);
#189=EDGE_CURVE('',#239,#240,#43,.F.);
#190=EDGE_CURVE('',#216,#240,#266,.T.);
#191=EDGE_CURVE('',#223,#216,#267,.T.);
#192=EDGE_CURVE('',#223,#241,#268,.T.);
#193=EDGE_CURVE('',#241,#242,#44,.F.);
#194=EDGE_CURVE('',#242,#243,#269,.T.);
#195=EDGE_CURVE('',#243,#235,#45,.F.);
#196=EDGE_CURVE('',#244,#245,#270,.T.);
#197=EDGE_CURVE('',#245,#212,#46,.T.);
#198=EDGE_CURVE('',#213,#221,#271,.T.);
#199=EDGE_CURVE('',#220,#244,#47,.T.);
#200=EDGE_CURVE('',#214,#246,#48,.F.);
#201=EDGE_CURVE('',#247,#246,#272,.T.);
#202=EDGE_CURVE('',#247,#219,#49,.F.);
#203=EDGE_CURVE('',#215,#218,#273,.T.);
#204=EDGE_CURVE('',#246,#245,#274,.F.);
#205=EDGE_CURVE('',#244,#247,#275,.T.);
#206=EDGE_CURVE('',#240,#233,#276,.T.);
#207=EDGE_CURVE('',#238,#227,#277,.T.);
#208=EDGE_CURVE('',#226,#239,#278,.F.);
#209=EDGE_CURVE('',#232,#241,#279,.F.);
#210=EDGE_CURVE('',#230,#243,#280,.F.);
#211=EDGE_CURVE('',#242,#231,#281,.T.);
#212=VERTEX_POINT('',#584);
#213=VERTEX_POINT('',#585);
#214=VERTEX_POINT('',#587);
#215=VERTEX_POINT('',#589);
#216=VERTEX_POINT('',#591);
#217=VERTEX_POINT('',#593);
#218=VERTEX_POINT('',#597);
#219=VERTEX_POINT('',#598);
#220=VERTEX_POINT('',#600);
#221=VERTEX_POINT('',#602);
#222=VERTEX_POINT('',#604);
#223=VERTEX_POINT('',#606);
#224=VERTEX_POINT('',#610);
#225=VERTEX_POINT('',#612);
#226=VERTEX_POINT('',#614);
#227=VERTEX_POINT('',#615);
#228=VERTEX_POINT('',#617);
#229=VERTEX_POINT('',#619);
#230=VERTEX_POINT('',#621);
#231=VERTEX_POINT('',#623);
#232=VERTEX_POINT('',#625);
#233=VERTEX_POINT('',#629);
#234=VERTEX_POINT('',#633);
#235=VERTEX_POINT('',#635);
#236=VERTEX_POINT('',#639);
#237=VERTEX_POINT('',#641);
#238=VERTEX_POINT('',#643);
#239=VERTEX_POINT('',#645);
#240=VERTEX_POINT('',#647);
#241=VERTEX_POINT('',#651);
#242=VERTEX_POINT('',#653);
#243=VERTEX_POINT('',#655);
#244=VERTEX_POINT('',#659);
#245=VERTEX_POINT('',#660);
#246=VERTEX_POINT('',#666);
#247=VERTEX_POINT('',#668);
#248=LINE('',#583,#282);
#249=LINE('',#586,#283);
#250=LINE('',#588,#284);
#251=LINE('',#592,#285);
#252=LINE('',#596,#286);
#253=LINE('',#599,#287);
#254=LINE('',#601,#288);
#255=LINE('',#605,#289);
#256=LINE('',#613,#290);
#257=LINE('',#618,#291);
#258=LINE('',#622,#292);
#259=LINE('',#626,#293);
#260=LINE('',#627,#294);
#261=LINE('',#628,#295);
#262=LINE('',#632,#296);
#263=LINE('',#634,#297);
#264=LINE('',#636,#298);
#265=LINE('',#644,#299);
#266=LINE('',#648,#300);
#267=LINE('',#649,#301);
#268=LINE('',#650,#302);
#269=LINE('',#654,#303);
#270=LINE('',#658,#304);
#271=LINE('',#662,#305);
#272=LINE('',#667,#306);
#273=LINE('',#670,#307);
#274=LINE('',#672,#308);
#275=LINE('',#673,#309);
#276=LINE('',#677,#310);
#277=LINE('',#679,#311);
#278=LINE('',#680,#312);
#279=LINE('',#682,#313);
#280=LINE('',#684,#314);
#281=LINE('',#685,#315);
#282=VECTOR('',#465,1000.);
#283=VECTOR('',#466,1000.);
#284=VECTOR('',#467,1000.);
#285=VECTOR('',#470,1000.);
#286=VECTOR('',#475,1000.);
#287=VECTOR('',#476,1000.);
#288=VECTOR('',#477,1000.);
#289=VECTOR('',#480,1000.);
#290=VECTOR('',#489,1000.);
#291=VECTOR('',#492,1000.);
#292=VECTOR('',#495,1000.);
#293=VECTOR('',#498,1000.);
#294=VECTOR('',#499,1000.);
#295=VECTOR('',#500,1000.);
#296=VECTOR('',#505,1000.);
#297=VECTOR('',#506,1000.);
#298=VECTOR('',#507,1000.);
#299=VECTOR('',#516,1000.);
#300=VECTOR('',#519,1000.);
#301=VECTOR('',#520,1000.);
#302=VECTOR('',#521,1000.);
#303=VECTOR('',#524,1000.);
#304=VECTOR('',#529,1000.);
#305=VECTOR('',#532,1000.);
#306=VECTOR('',#539,1000.);
#307=VECTOR('',#542,1000.);
#308=VECTOR('',#545,1000.);
#309=VECTOR('',#546,1000.);
#310=VECTOR('',#553,1000.);
#311=VECTOR('',#556,1000.);
#312=VECTOR('',#557,1000.);
#313=VECTOR('',#560,1000.);
#314=VECTOR('',#563,1000.);
#315=VECTOR('',#564,1000.);
#316=EDGE_LOOP('',(#50,#51,#52,#53,#54,#55));
#317=EDGE_LOOP('',(#56,#57,#58,#59,#60,#61));
#318=EDGE_LOOP('',(#62));
#319=EDGE_LOOP('',(#63));
#320=EDGE_LOOP('',(#64,#65,#66,#67,#68,#69,#70,#71,#72,#73));
#321=EDGE_LOOP('',(#74,#75,#76,#77));
#322=EDGE_LOOP('',(#78));
#323=EDGE_LOOP('',(#79));
#324=EDGE_LOOP('',(#80,#81,#82,#83,#84,#85,#86,#87,#88,#89));
#325=EDGE_LOOP('',(#90,#91,#92,#93,#94,#95));
#326=EDGE_LOOP('',(#96,#97,#98,#99,#100,#101));
#327=EDGE_LOOP('',(#102,#103,#104,#105));
#328=EDGE_LOOP('',(#106,#107,#108,#109));
#329=EDGE_LOOP('',(#110,#111,#112,#113));
#330=EDGE_LOOP('',(#114,#115,#116,#117));
#331=EDGE_LOOP('',(#118,#119,#120,#121));
#332=EDGE_LOOP('',(#122,#123,#124,#125));
#333=EDGE_LOOP('',(#126,#127,#128,#129));
#334=EDGE_LOOP('',(#130,#131,#132,#133));
#335=EDGE_LOOP('',(#134,#135,#136,#137));
#336=EDGE_LOOP('',(#138,#139,#140,#141));
#337=EDGE_LOOP('',(#142,#143,#144,#145));
#338=EDGE_LOOP('',(#146,#147,#148,#149));
#339=EDGE_LOOP('',(#150,#151,#152,#153));
#340=EDGE_LOOP('',(#154));
#341=EDGE_LOOP('',(#155));
#342=EDGE_LOOP('',(#156));
#343=EDGE_LOOP('',(#157));
#344=FACE_BOUND('',#316,.T.);
#345=FACE_BOUND('',#317,.T.);
#346=FACE_BOUND('',#318,.T.);
#347=FACE_BOUND('',#319,.T.);
#348=FACE_BOUND('',#320,.T.);
#349=FACE_BOUND('',#321,.T.);
#350=FACE_BOUND('',#322,.T.);
#351=FACE_BOUND('',#323,.T.);
#352=FACE_BOUND('',#324,.T.);
#353=FACE_BOUND('',#325,.T.);
#354=FACE_BOUND('',#326,.T.);
#355=FACE_BOUND('',#327,.T.);
#356=FACE_BOUND('',#328,.T.);
#357=FACE_BOUND('',#329,.T.);
#358=FACE_BOUND('',#330,.T.);
#359=FACE_BOUND('',#331,.T.);
#360=FACE_BOUND('',#332,.T.);
#361=FACE_BOUND('',#333,.T.);
#362=FACE_BOUND('',#334,.T.);
#363=FACE_BOUND('',#335,.T.);
#364=FACE_BOUND('',#336,.T.);
#365=FACE_BOUND('',#337,.T.);
#366=FACE_BOUND('',#338,.T.);
#367=FACE_BOUND('',#339,.T.);
#368=FACE_BOUND('',#340,.T.);
#369=FACE_BOUND('',#341,.T.);
#370=FACE_BOUND('',#342,.T.);
#371=FACE_BOUND('',#343,.T.);
#372=PLANE('',#419);
#373=PLANE('',#422);
#374=PLANE('',#425);
#375=PLANE('',#432);
#376=PLANE('',#433);
#377=PLANE('',#440);
#378=PLANE('',#443);
#379=PLANE('',#446);
#380=PLANE('',#449);
#381=PLANE('',#450);
#382=PLANE('',#451);
#383=PLANE('',#452);
#384=ADVANCED_FACE('',(#344),#372,.T.);
#385=ADVANCED_FACE('',(#345),#373,.T.);
#386=ADVANCED_FACE('',(#346,#347,#348),#374,.T.);
#387=ADVANCED_FACE('',(#349),#375,.T.);
#388=ADVANCED_FACE('',(#350,#351,#352),#376,.F.);
#389=ADVANCED_FACE('',(#353),#377,.T.);
#390=ADVANCED_FACE('',(#354),#378,.F.);
#391=ADVANCED_FACE('',(#355),#379,.F.);
#392=ADVANCED_FACE('',(#356),#20,.T.);
#393=ADVANCED_FACE('',(#357),#21,.F.);
#394=ADVANCED_FACE('',(#358),#380,.T.);
#395=ADVANCED_FACE('',(#359),#381,.T.);
#396=ADVANCED_FACE('',(#360),#382,.F.);
#397=ADVANCED_FACE('',(#361),#383,.F.);
#398=ADVANCED_FACE('',(#362),#22,.T.);
#399=ADVANCED_FACE('',(#363),#23,.T.);
#400=ADVANCED_FACE('',(#364),#24,.T.);
#401=ADVANCED_FACE('',(#365),#25,.T.);
#402=ADVANCED_FACE('',(#366),#26,.T.);
#403=ADVANCED_FACE('',(#367),#27,.T.);
#404=ADVANCED_FACE('',(#368,#369),#28,.F.);
#405=ADVANCED_FACE('',(#370,#371),#29,.F.);
#406=CLOSED_SHELL('',(#384,#385,#386,#387,#388,#389,#390,#391,#392,#393,
#394,#395,#396,#397,#398,#399,#400,#401,#402,#403,#404,#405));
#407=STYLED_ITEM('',(#408),#415);
#408=PRESENTATION_STYLE_ASSIGNMENT((#409));
#409=SURFACE_STYLE_USAGE(.BOTH.,#410);
#410=SURFACE_SIDE_STYLE('',(#411));
#411=SURFACE_STYLE_FILL_AREA(#412);
#412=FILL_AREA_STYLE('',(#413));
#413=FILL_AREA_STYLE_COLOUR('',#414);
#414=COLOUR_RGB('',0.331739127635956,0.340869575738907,0.349999994039536);
#415=MANIFOLD_SOLID_BREP('',#406);
#416=SHAPE_DEFINITION_REPRESENTATION(#700,#417);
#417=SHAPE_REPRESENTATION('TOLE SUPPORT',(#418),#695);
#418=AXIS2_PLACEMENT_3D('',#581,#461,#462);
#419=AXIS2_PLACEMENT_3D('',#582,#463,#464);
#420=AXIS2_PLACEMENT_3D('',#590,#468,#469);
#421=AXIS2_PLACEMENT_3D('',#594,#471,#472);
#422=AXIS2_PLACEMENT_3D('',#595,#473,#474);
#423=AXIS2_PLACEMENT_3D('',#603,#478,#479);
#424=AXIS2_PLACEMENT_3D('',#607,#481,#482);
#425=AXIS2_PLACEMENT_3D('',#608,#483,#484);
#426=AXIS2_PLACEMENT_3D('',#609,#485,#486);
#427=AXIS2_PLACEMENT_3D('',#611,#487,#488);
#428=AXIS2_PLACEMENT_3D('',#616,#490,#491);
#429=AXIS2_PLACEMENT_3D('',#620,#493,#494);
#430=AXIS2_PLACEMENT_3D('',#624,#496,#497);
#431=AXIS2_PLACEMENT_3D('',#630,#501,#502);
#432=AXIS2_PLACEMENT_3D('',#631,#503,#504);
#433=AXIS2_PLACEMENT_3D('',#637,#508,#509);
#434=AXIS2_PLACEMENT_3D('',#638,#510,#511);
#435=AXIS2_PLACEMENT_3D('',#640,#512,#513);
#436=AXIS2_PLACEMENT_3D('',#642,#514,#515);
#437=AXIS2_PLACEMENT_3D('',#646,#517,#518);
#438=AXIS2_PLACEMENT_3D('',#652,#522,#523);
#439=AXIS2_PLACEMENT_3D('',#656,#525,#526);
#440=AXIS2_PLACEMENT_3D('',#657,#527,#528);
#441=AXIS2_PLACEMENT_3D('',#661,#530,#531);
#442=AXIS2_PLACEMENT_3D('',#663,#533,#534);
#443=AXIS2_PLACEMENT_3D('',#664,#535,#536);
#444=AXIS2_PLACEMENT_3D('',#665,#537,#538);
#445=AXIS2_PLACEMENT_3D('',#669,#540,#541);
#446=AXIS2_PLACEMENT_3D('',#671,#543,#544);
#447=AXIS2_PLACEMENT_3D('',#674,#547,#548);
#448=AXIS2_PLACEMENT_3D('',#675,#549,#550);
#449=AXIS2_PLACEMENT_3D('',#676,#551,#552);
#450=AXIS2_PLACEMENT_3D('',#678,#554,#555);
#451=AXIS2_PLACEMENT_3D('',#681,#558,#559);
#452=AXIS2_PLACEMENT_3D('',#683,#561,#562);
#453=AXIS2_PLACEMENT_3D('',#686,#565,#566);
#454=AXIS2_PLACEMENT_3D('',#687,#567,#568);
#455=AXIS2_PLACEMENT_3D('',#688,#569,#570);
#456=AXIS2_PLACEMENT_3D('',#689,#571,#572);
#457=AXIS2_PLACEMENT_3D('',#690,#573,#574);
#458=AXIS2_PLACEMENT_3D('',#691,#575,#576);
#459=AXIS2_PLACEMENT_3D('',#692,#577,#578);
#460=AXIS2_PLACEMENT_3D('',#693,#579,#580);
#461=DIRECTION('',(0.,0.,1.));
#462=DIRECTION('',(1.,0.,0.));
#463=DIRECTION('',(1.,0.,0.));
#464=DIRECTION('',(0.,0.,-1.));
#465=DIRECTION('',(0.,-6.12323399573677E-17,1.));
#466=DIRECTION('',(0.,1.,8.24633502637298E-17));
#467=DIRECTION('',(0.,-6.12323399573677E-17,1.));
#468=DIRECTION('',(1.,0.,0.));
#469=DIRECTION('',(0.,0.,-1.));
#470=DIRECTION('',(0.,0.,1.));
#471=DIRECTION('',(-1.,0.,0.));
#472=DIRECTION('',(0.,0.,-1.));
#473=DIRECTION('',(-1.,0.,0.));
#474=DIRECTION('',(0.,0.,1.));
#475=DIRECTION('',(0.,6.12323399573677E-17,-1.));
#476=DIRECTION('',(0.,1.,8.24633502637298E-17));
#477=DIRECTION('',(0.,6.12323399573677E-17,-1.));
#478=DIRECTION('',(1.,0.,0.));
#479=DIRECTION('',(0.,0.,-1.));
#480=DIRECTION('',(0.,0.,1.));
#481=DIRECTION('',(1.,0.,0.));
#482=DIRECTION('',(0.,0.,-1.));
#483=DIRECTION('',(0.,0.,1.));
#484=DIRECTION('',(1.,0.,0.));
#485=DIRECTION('',(0.,0.,-1.));
#486=DIRECTION('',(1.,0.,0.));
#487=DIRECTION('',(0.,0.,-1.));
#488=DIRECTION('',(1.,0.,0.));
#489=DIRECTION('',(0.,1.,0.));
#490=DIRECTION('',(0.,0.,1.));
#491=DIRECTION('',(1.,0.,0.));
#492=DIRECTION('',(-1.,0.,0.));
#493=DIRECTION('',(0.,0.,1.));
#494=DIRECTION('',(1.,0.,0.));
#495=DIRECTION('',(0.,1.,0.));
#496=DIRECTION('',(0.,0.,1.));
#497=DIRECTION('',(1.,0.,0.));
#498=DIRECTION('',(-1.,-1.44560289664734E-16,0.));
#499=DIRECTION('',(1.,0.,0.));
#500=DIRECTION('',(1.,0.,0.));
#501=DIRECTION('',(0.,0.,1.));
#502=DIRECTION('',(1.,0.,0.));
#503=DIRECTION('',(0.,1.,0.));
#504=DIRECTION('',(0.,0.,1.));
#505=DIRECTION('',(0.,0.,1.));
#506=DIRECTION('',(-1.,0.,0.));
#507=DIRECTION('',(0.,0.,1.));
#508=DIRECTION('',(0.,0.,1.));
#509=DIRECTION('',(1.,0.,0.));
#510=DIRECTION('',(0.,0.,1.));
#511=DIRECTION('',(1.,0.,0.));
#512=DIRECTION('',(0.,0.,1.));
#513=DIRECTION('',(1.,0.,0.));
#514=DIRECTION('',(0.,0.,1.));
#515=DIRECTION('',(1.,0.,0.));
#516=DIRECTION('',(0.,1.,0.));
#517=DIRECTION('',(0.,0.,1.));
#518=DIRECTION('',(1.,0.,0.));
#519=DIRECTION('',(1.,0.,0.));
#520=DIRECTION('',(1.,0.,0.));
#521=DIRECTION('',(-1.,-1.44560289664734E-16,0.));
#522=DIRECTION('',(0.,0.,1.));
#523=DIRECTION('',(1.,0.,0.));
#524=DIRECTION('',(0.,1.,0.));
#525=DIRECTION('',(0.,0.,1.));
#526=DIRECTION('',(1.,0.,0.));
#527=DIRECTION('',(0.,-1.,-6.12323399573677E-17));
#528=DIRECTION('',(0.,6.12323399573677E-17,-1.));
#529=DIRECTION('',(1.,0.,0.));
#530=DIRECTION('',(0.,-1.,-6.12323399573677E-17));
#531=DIRECTION('',(0.,6.12323399573677E-17,-1.));
#532=DIRECTION('',(-1.,0.,0.));
#533=DIRECTION('',(0.,-1.,-6.12323399573677E-17));
#534=DIRECTION('',(0.,6.12323399573677E-17,-1.));
#535=DIRECTION('',(0.,-1.,-6.12323399573677E-17));
#536=DIRECTION('',(0.,6.12323399573677E-17,-1.));
#537=DIRECTION('',(0.,-1.,-6.12323399573677E-17));
#538=DIRECTION('',(0.,6.12323399573677E-17,-1.));
#539=DIRECTION('',(1.,0.,0.));
#540=DIRECTION('',(0.,-1.,-6.12323399573677E-17));
#541=DIRECTION('',(0.,6.12323399573677E-17,-1.));
#542=DIRECTION('',(-1.,0.,0.));
#543=DIRECTION('',(0.,-8.24633502637298E-17,1.));
#544=DIRECTION('',(0.,-1.,-8.24633502637298E-17));
#545=DIRECTION('',(0.,1.,8.24633502637298E-17));
#546=DIRECTION('',(0.,1.,8.24633502637298E-17));
#547=DIRECTION('',(1.,0.,0.));
#548=DIRECTION('',(0.,0.,-1.));
#549=DIRECTION('',(1.,0.,0.));
#550=DIRECTION('',(0.,0.,-1.));
#551=DIRECTION('',(0.,-1.,0.));
#552=DIRECTION('',(0.,0.,-1.));
#553=DIRECTION('',(0.,0.,1.));
#554=DIRECTION('',(1.,0.,0.));
#555=DIRECTION('',(0.,0.,-1.));
#556=DIRECTION('',(0.,0.,1.));
#557=DIRECTION('',(0.,0.,1.));
#558=DIRECTION('',(-1.44560289664734E-16,1.,0.));
#559=DIRECTION('',(-1.,-1.44560289664734E-16,0.));
#560=DIRECTION('',(0.,0.,1.));
#561=DIRECTION('',(1.,0.,0.));
#562=DIRECTION('',(0.,0.,-1.));
#563=DIRECTION('',(0.,0.,1.));
#564=DIRECTION('',(0.,0.,1.));
#565=DIRECTION('',(0.,0.,1.));
#566=DIRECTION('',(1.,0.,0.));
#567=DIRECTION('',(0.,0.,1.));
#568=DIRECTION('',(1.,0.,0.));
#569=DIRECTION('',(0.,-1.,-8.24633502637298E-17));
#570=DIRECTION('',(0.,8.24633502637298E-17,-1.));
#571=DIRECTION('',(0.,-1.,-8.24633502637298E-17));
#572=DIRECTION('',(0.,8.24633502637298E-17,-1.));
#573=DIRECTION('',(0.,0.,-1.));
#574=DIRECTION('',(-1.,0.,0.));
#575=DIRECTION('',(0.,0.,1.));
#576=DIRECTION('',(1.,0.,0.));
#577=DIRECTION('',(0.,0.,1.));
#578=DIRECTION('',(1.,0.,0.));
#579=DIRECTION('',(0.,0.,1.));
#580=DIRECTION('',(1.,0.,0.));
#581=CARTESIAN_POINT('',(0.,0.,0.));
#582=CARTESIAN_POINT('',(200.,-6.99999999999998,-1.));
#583=CARTESIAN_POINT('',(200.,-6.99999999999998,-0.481851813994285));
#584=CARTESIAN_POINT('',(200.,-6.99999999999997,-9.));
#585=CARTESIAN_POINT('',(200.,-6.99999999999998,-1.001));
#586=CARTESIAN_POINT('',(200.,-4.99999999999997,-9.));
#587=CARTESIAN_POINT('',(200.,-4.99999999999997,-9.));
#588=CARTESIAN_POINT('',(200.,-4.99999999999998,-0.481851813994285));
#589=CARTESIAN_POINT('',(200.,-4.99999999999998,-1.001));
#590=CARTESIAN_POINT('',(200.,-4.99899999999998,-1.001));
#591=CARTESIAN_POINT('',(200.,-4.99899999999998,-1.));
#592=CARTESIAN_POINT('',(200.,-4.99899999999998,-1.));
#593=CARTESIAN_POINT('',(200.,-4.99899999999998,1.));
#594=CARTESIAN_POINT('',(200.,-4.99899999999998,-1.001));
#595=CARTESIAN_POINT('',(-200.,6.99999999999995,-1.));
#596=CARTESIAN_POINT('',(-200.,-4.99999999999998,-0.481851813994285));
#597=CARTESIAN_POINT('',(-200.,-4.99999999999998,-1.001));
#598=CARTESIAN_POINT('',(-200.,-4.99999999999997,-9.));
#599=CARTESIAN_POINT('',(-200.,-6.99999999999997,-9.));
#600=CARTESIAN_POINT('',(-200.,-6.99999999999997,-9.));
#601=CARTESIAN_POINT('',(-200.,-6.99999999999998,-0.481851813994285));
#602=CARTESIAN_POINT('',(-200.,-6.99999999999998,-1.001));
#603=CARTESIAN_POINT('',(-200.,-4.99899999999998,-1.001));
#604=CARTESIAN_POINT('',(-200.,-4.99899999999998,1.));
#605=CARTESIAN_POINT('',(-200.,-4.99899999999998,-1.));
#606=CARTESIAN_POINT('',(-200.,-4.99899999999998,-1.));
#607=CARTESIAN_POINT('',(-200.,-4.99899999999998,-1.001));
#608=CARTESIAN_POINT('',(0.,0.,1.));
#609=CARTESIAN_POINT('',(207.,0.99999999999995,1.));
#610=CARTESIAN_POINT('',(209.,0.99999999999995,1.));
#611=CARTESIAN_POINT('',(-207.,0.999999999999951,1.));
#612=CARTESIAN_POINT('',(-205.,0.999999999999951,1.));
#613=CARTESIAN_POINT('',(212.,-4.99899999999998,1.));
#614=CARTESIAN_POINT('',(212.,-2.99899999999998,1.));
#615=CARTESIAN_POINT('',(212.,4.99999999999995,1.));
#616=CARTESIAN_POINT('',(210.,4.99999999999995,1.));
#617=CARTESIAN_POINT('',(210.,6.99999999999995,1.));
#618=CARTESIAN_POINT('',(200.,6.99999999999995,1.));
#619=CARTESIAN_POINT('',(-210.,6.99999999999995,1.));
#620=CARTESIAN_POINT('',(-210.,4.99999999999995,1.));
#621=CARTESIAN_POINT('',(-212.,4.99999999999995,1.));
#622=CARTESIAN_POINT('',(-212.,-4.99899999999998,1.));
#623=CARTESIAN_POINT('',(-212.,-2.99899999999998,1.));
#624=CARTESIAN_POINT('',(-210.,-2.99899999999998,1.));
#625=CARTESIAN_POINT('',(-210.,-4.99899999999998,1.));
#626=CARTESIAN_POINT('',(-200.,-4.99899999999998,1.));
#627=CARTESIAN_POINT('',(-200.,-4.99899999999998,1.));
#628=CARTESIAN_POINT('',(200.,-4.99899999999998,1.));
#629=CARTESIAN_POINT('',(210.,-4.99899999999998,1.));
#630=CARTESIAN_POINT('',(210.,-2.99899999999998,1.));
#631=CARTESIAN_POINT('',(200.,6.99999999999995,-1.));
#632=CARTESIAN_POINT('',(210.,6.99999999999995,-1.));
#633=CARTESIAN_POINT('',(210.,6.99999999999995,-1.));
#634=CARTESIAN_POINT('',(200.,6.99999999999995,-1.));
#635=CARTESIAN_POINT('',(-210.,6.99999999999995,-1.));
#636=CARTESIAN_POINT('',(-210.,6.99999999999995,1.));
#637=CARTESIAN_POINT('',(0.,0.,-1.));
#638=CARTESIAN_POINT('',(207.,0.99999999999995,-1.));
#639=CARTESIAN_POINT('',(209.,0.99999999999995,-1.));
#640=CARTESIAN_POINT('',(-207.,0.999999999999951,-1.));
#641=CARTESIAN_POINT('',(-205.,0.999999999999951,-1.));
#642=CARTESIAN_POINT('',(210.,4.99999999999995,-1.));
#643=CARTESIAN_POINT('',(212.,4.99999999999995,-1.));
#644=CARTESIAN_POINT('',(212.,-4.99899999999998,-1.));
#645=CARTESIAN_POINT('',(212.,-2.99899999999998,-1.));
#646=CARTESIAN_POINT('',(210.,-2.99899999999998,-1.));
#647=CARTESIAN_POINT('',(210.,-4.99899999999998,-1.));
#648=CARTESIAN_POINT('',(200.,-4.99899999999998,-1.));
#649=CARTESIAN_POINT('',(-200.,-4.99899999999998,-1.));
#650=CARTESIAN_POINT('',(-200.,-4.99899999999998,-1.));
#651=CARTESIAN_POINT('',(-210.,-4.99899999999998,-1.));
#652=CARTESIAN_POINT('',(-210.,-2.99899999999998,-1.));
#653=CARTESIAN_POINT('',(-212.,-2.99899999999998,-1.));
#654=CARTESIAN_POINT('',(-212.,-4.99899999999998,-1.));
#655=CARTESIAN_POINT('',(-212.,4.99999999999995,-1.));
#656=CARTESIAN_POINT('',(-210.,4.99999999999995,-1.));
#657=CARTESIAN_POINT('',(0.,-6.99999999999998,-4.71088400314296E-16));
#658=CARTESIAN_POINT('',(-200.,-6.99999999999997,-11.));
#659=CARTESIAN_POINT('',(-198.,-6.99999999999997,-11.));
#660=CARTESIAN_POINT('',(198.,-6.99999999999997,-11.));
#661=CARTESIAN_POINT('',(198.,-6.99999999999997,-9.));
#662=CARTESIAN_POINT('',(200.,-6.99999999999998,-1.001));
#663=CARTESIAN_POINT('',(-198.,-6.99999999999997,-9.));
#664=CARTESIAN_POINT('',(0.,-4.99999999999998,-3.06161699786837E-16));
#665=CARTESIAN_POINT('',(198.,-4.99999999999998,-9.));
#666=CARTESIAN_POINT('',(198.,-4.99999999999997,-11.));
#667=CARTESIAN_POINT('',(-200.,-4.99999999999997,-11.));
#668=CARTESIAN_POINT('',(-198.,-4.99999999999997,-11.));
#669=CARTESIAN_POINT('',(-198.,-4.99999999999998,-9.));
#670=CARTESIAN_POINT('',(200.,-4.99999999999998,-1.001));
#671=CARTESIAN_POINT('',(-200.,-6.99999999999997,-11.));
#672=CARTESIAN_POINT('',(198.,-6.99999999999997,-11.));
#673=CARTESIAN_POINT('',(-198.,-4.99999999999997,-11.));
#674=CARTESIAN_POINT('',(-200.,-4.99899999999998,-1.001));
#675=CARTESIAN_POINT('',(-200.,-4.99899999999998,-1.001));
#676=CARTESIAN_POINT('',(200.,-4.99899999999998,-1.));
#677=CARTESIAN_POINT('',(210.,-4.99899999999998,-1.));
#678=CARTESIAN_POINT('',(212.,-4.99899999999998,-1.));
#679=CARTESIAN_POINT('',(212.,4.99999999999995,-1.));
#680=CARTESIAN_POINT('',(212.,-2.99899999999998,-1.));
#681=CARTESIAN_POINT('',(-200.,-4.99899999999998,-1.));
#682=CARTESIAN_POINT('',(-210.,-4.99899999999998,-1.));
#683=CARTESIAN_POINT('',(-212.,-4.99899999999998,-1.));
#684=CARTESIAN_POINT('',(-212.,4.99999999999995,-1.));
#685=CARTESIAN_POINT('',(-212.,-2.99899999999998,-1.));
#686=CARTESIAN_POINT('',(210.,4.99999999999995,-1.));
#687=CARTESIAN_POINT('',(210.,-2.99899999999998,-1.));
#688=CARTESIAN_POINT('',(198.,-6.99999999999998,-9.));
#689=CARTESIAN_POINT('',(-198.,-6.99999999999997,-9.));
#690=CARTESIAN_POINT('',(-210.,4.99999999999995,-1.));
#691=CARTESIAN_POINT('',(-210.,-2.99899999999998,-1.));
#692=CARTESIAN_POINT('',(-207.,0.999999999999951,-96.206027022434));
#693=CARTESIAN_POINT('',(207.,0.99999999999995,-96.206027022434));
#694=MECHANICAL_DESIGN_GEOMETRIC_PRESENTATION_REPRESENTATION('',(#407),
#695);
#695=(
GEOMETRIC_REPRESENTATION_CONTEXT(3)
GLOBAL_UNCERTAINTY_ASSIGNED_CONTEXT((#696))
GLOBAL_UNIT_ASSIGNED_CONTEXT((#699,#698,#697))
REPRESENTATION_CONTEXT('TOLE SUPPORT','TOP_LEVEL_ASSEMBLY_PART')
);
#696=UNCERTAINTY_MEASURE_WITH_UNIT(LENGTH_MEASURE(0.005),#699,
'DISTANCE_ACCURACY_VALUE','Maximum Tolerance applied to model');
#697=(
NAMED_UNIT(*)
SI_UNIT($,.STERADIAN.)
SOLID_ANGLE_UNIT()
);
#698=(
NAMED_UNIT(*)
PLANE_ANGLE_UNIT()
SI_UNIT($,.RADIAN.)
);
#699=(
LENGTH_UNIT()
NAMED_UNIT(*)
SI_UNIT(.MILLI.,.METRE.)
);
#700=PRODUCT_DEFINITION_SHAPE('','',#701);
#701=PRODUCT_DEFINITION('','',#703,#702);
#702=PRODUCT_DEFINITION_CONTEXT('',#709,'design');
#703=PRODUCT_DEFINITION_FORMATION_WITH_SPECIFIED_SOURCE('','',#705,
 .NOT_KNOWN.);
#704=PRODUCT_RELATED_PRODUCT_CATEGORY('','',(#705));
#705=PRODUCT('TOLE SUPPORT','TOLE SUPPORT','TOLE SUPPORT',(#707));
#706=PRODUCT_CATEGORY('','');
#707=PRODUCT_CONTEXT('',#709,'mechanical');
#708=APPLICATION_PROTOCOL_DEFINITION('international standard',
'automotive_design',2010,#709);
#709=APPLICATION_CONTEXT(
'core data for automotive mechanical design processes');
ENDSEC;
END-ISO-10303-21;
