ISO-10303-21;
HEADER;
FILE_DESCRIPTION (( 'STEP AP203' ),
    '1' );
FILE_NAME ('Arbre TourPot.STEP',
    '2020-10-15T12:41:57',
    ( '' ),
    ( '' ),
    'SwSTEP 2.0',
    'SolidWorks 2020',
    '' );
FILE_SCHEMA (( 'CONFIG_CONTROL_DESIGN' ));
ENDSEC;

DATA;
#1 = EDGE_LOOP ( 'NONE', ( #21 ) ) ;
#2 = DIRECTION ( 'NONE',  ( 1.000000000000000000, 0.0000000000000000000, 0.0000000000000000000 ) ) ;
#3 = LOCAL_TIME ( 14, 41, 57.00000000000000000, #214 ) ;
#4 = FACE_OUTER_BOUND ( 'NONE', #1, .T. ) ;
#5 = ORIENTED_EDGE ( 'NONE', *, *, #102, .T. ) ;
#6 = PRODUCT_DEFINITION_FORMATION_WITH_SPECIFIED_SOURCE ( 'ANY', '', #184, .NOT_KNOWN. ) ;
#7 = FACE_BOUND ( 'NONE', #123, .T. ) ;
#8 = ADVANCED_FACE ( 'NONE', ( #209, #4 ), #113, .T. ) ;
#9 = CARTESIAN_POINT ( 'NONE',  ( 0.0000000000000000000, 0.0000000000000000000, 150.0000000000000000 ) ) ;
#10 = CC_DESIGN_APPROVAL ( #96, ( #135 ) ) ;
#11 = DIRECTION ( 'NONE',  ( 0.0000000000000000000, 0.0000000000000000000, -1.000000000000000000 ) ) ;
#12 = VERTEX_POINT ( 'NONE', #134 ) ;
#13 = VERTEX_POINT ( 'NONE', #198 ) ;
#14 = LOCAL_TIME ( 14, 41, 57.00000000000000000, #78 ) ;
#15 = COORDINATED_UNIVERSAL_TIME_OFFSET ( 1, 0, .AHEAD. ) ;
#16 = DIRECTION ( 'NONE',  ( 1.000000000000000000, 0.0000000000000000000, 0.0000000000000000000 ) ) ;
#17 = APPROVAL_DATE_TIME ( #95, #162 ) ;
#18 = AXIS2_PLACEMENT_3D ( 'NONE', #130, #88, #161 ) ;
#19 = DIRECTION ( 'NONE',  ( 0.0000000000000000000, 0.0000000000000000000, -1.000000000000000000 ) ) ;
#20 = PERSON ( 'UNSPECIFIED', 'UNSPECIFIED', 'UNSPECIFIED', ('UNSPECIFIED'), ('UNSPECIFIED'), ('UNSPECIFIED') ) ;
#21 = ORIENTED_EDGE ( 'NONE', *, *, #23, .F. ) ;
#22 = AXIS2_PLACEMENT_3D ( 'NONE', #68, #140, #206 ) ;
#23 = EDGE_CURVE ( 'NONE', #149, #149, #212, .T. ) ;
#24 = DIRECTION ( 'NONE',  ( 1.000000000000000000, 0.0000000000000000000, 0.0000000000000000000 ) ) ;
#25 = DIRECTION ( 'NONE',  ( -0.0000000000000000000, -0.0000000000000000000, -1.000000000000000000 ) ) ;
#26 = DIRECTION ( 'NONE',  ( -0.0000000000000000000, -0.0000000000000000000, 1.000000000000000000 ) ) ;
#27 = CARTESIAN_POINT ( 'NONE',  ( 0.0000000000000000000, 0.0000000000000000000, 105.5000000000000000 ) ) ;
#28 = UNCERTAINTY_MEASURE_WITH_UNIT (LENGTH_MEASURE( 1.000000000000000082E-05 ), #51, 'distance_accuracy_value', 'NONE');
#29 = CYLINDRICAL_SURFACE ( 'NONE', #77, 4.249999999999996447 ) ;
#30 = CARTESIAN_POINT ( 'NONE',  ( 8.999999999999952038, 0.0000000000000000000, -150.0000000000000000 ) ) ;
#31 = VERTEX_POINT ( 'NONE', #164 ) ;
#32 = ADVANCED_BREP_SHAPE_REPRESENTATION ( 'Arbre TourPot', ( #125, #170 ), #173 ) ;
#33 = DATE_AND_TIME ( #53, #14 ) ;
#34 = EDGE_CURVE ( 'NONE', #179, #179, #155, .T. ) ;
#35 = APPROVAL_STATUS ( 'not_yet_approved' ) ;
#36 = DATE_AND_TIME ( #182, #3 ) ;
#37 = MECHANICAL_CONTEXT ( 'NONE', #97, 'mechanical' ) ;
#38 = CC_DESIGN_SECURITY_CLASSIFICATION ( #135, ( #6 ) ) ;
#39 = EDGE_LOOP ( 'NONE', ( #5 ) ) ;
#40 = APPROVAL_DATE_TIME ( #58, #96 ) ;
#41 = DIRECTION ( 'NONE',  ( -1.000000000000000000, 0.0000000000000000000, 0.0000000000000000000 ) ) ;
#42 = PRODUCT_RELATED_PRODUCT_CATEGORY ( 'detail', '', ( #184 ) ) ;
#43 = LOCAL_TIME ( 14, 41, 57.00000000000000000, #136 ) ;
#44 = DIRECTION ( 'NONE',  ( -0.0000000000000000000, -0.0000000000000000000, 1.000000000000000000 ) ) ;
#45 = CIRCLE ( 'NONE', #122, 4.250000000000000000 ) ;
#46 = PRODUCT_DEFINITION ( 'UNKNOWN', '', #6, #89 ) ;
#47 = DIRECTION ( 'NONE',  ( 1.000000000000000000, 0.0000000000000000000, 0.0000000000000000000 ) ) ;
#48 = DIRECTION ( 'NONE',  ( 1.000000000000000000, 0.0000000000000000000, 0.0000000000000000000 ) ) ;
#49 = APPROVAL_ROLE ( '' ) ;
#50 = DATE_TIME_ROLE ( 'creation_date' ) ;
#51 =( LENGTH_UNIT ( ) NAMED_UNIT ( * ) SI_UNIT ( .MILLI., .METRE. ) );
#52 = ADVANCED_FACE ( 'NONE', ( #145 ), #201, .F. ) ;
#53 = CALENDAR_DATE ( 2020, 15, 10 ) ;
#54 = ORIENTED_EDGE ( 'NONE', *, *, #204, .T. ) ;
#55 = CONICAL_SURFACE ( 'NONE', #100, 9.000000000000035527, 0.7853981633974439491 ) ;
#56 = ORIENTED_EDGE ( 'NONE', *, *, #23, .T. ) ;
#57 = FACE_OUTER_BOUND ( 'NONE', #146, .T. ) ;
#58 = DATE_AND_TIME ( #71, #94 ) ;
#59 = EDGE_LOOP ( 'NONE', ( #70 ) ) ;
#60 = CIRCLE ( 'NONE', #178, 10.00000000000000000 ) ;
#61 = CARTESIAN_POINT ( 'NONE',  ( 0.0000000000000000000, 0.0000000000000000000, 105.5000000000000000 ) ) ;
#62 = PLANE ( 'NONE',  #166 ) ;
#63 = FACE_OUTER_BOUND ( 'NONE', #106, .T. ) ;
#64 = PERSON_AND_ORGANIZATION ( #20, #163 ) ;
#65 = DATE_TIME_ROLE ( 'classification_date' ) ;
#66 = PERSON_AND_ORGANIZATION_ROLE ( 'creator' ) ;
#67 = ORIENTED_EDGE ( 'NONE', *, *, #34, .F. ) ;
#68 = CARTESIAN_POINT ( 'NONE',  ( 0.0000000000000000000, 0.0000000000000000000, -150.0000000000000000 ) ) ;
#69 = SHAPE_DEFINITION_REPRESENTATION ( #118, #32 ) ;
#70 = ORIENTED_EDGE ( 'NONE', *, *, #34, .T. ) ;
#71 = CALENDAR_DATE ( 2020, 15, 10 ) ;
#72 = AXIS2_PLACEMENT_3D ( 'NONE', #61, #44, #192 ) ;
#73 = DIRECTION ( 'NONE',  ( 1.000000000000000000, 0.0000000000000000000, -0.0000000000000000000 ) ) ;
#74 = CC_DESIGN_APPROVAL ( #162, ( #6 ) ) ;
#75 = DIRECTION ( 'NONE',  ( -0.0000000000000000000, -0.0000000000000000000, 1.000000000000000000 ) ) ;
#76 = CC_DESIGN_PERSON_AND_ORGANIZATION_ASSIGNMENT ( #165, #154, ( #6 ) ) ;
#77 = AXIS2_PLACEMENT_3D ( 'NONE', #129, #87, #133 ) ;
#78 = COORDINATED_UNIVERSAL_TIME_OFFSET ( 1, 0, .AHEAD. ) ;
#79 = CALENDAR_DATE ( 2020, 15, 10 ) ;
#80 = PERSON_AND_ORGANIZATION ( #20, #163 ) ;
#81 = ORIENTED_EDGE ( 'NONE', *, *, #200, .T. ) ;
#82 = APPROVAL_ROLE ( '' ) ;
#83 = AXIS2_PLACEMENT_3D ( 'NONE', #128, #157, #24 ) ;
#84 = DIRECTION ( 'NONE',  ( 1.000000000000000000, 0.0000000000000000000, 0.0000000000000000000 ) ) ;
#85 = EDGE_LOOP ( 'NONE', ( #56 ) ) ;
#86 = APPROVAL_PERSON_ORGANIZATION ( #80, #162, #115 ) ;
#87 = DIRECTION ( 'NONE',  ( -0.0000000000000000000, -0.0000000000000000000, 1.000000000000000000 ) ) ;
#88 = DIRECTION ( 'NONE',  ( -0.0000000000000000000, -0.0000000000000000000, -1.000000000000000000 ) ) ;
#89 = DESIGN_CONTEXT ( 'detailed design', #121, 'design' ) ;
#90 = DIRECTION ( 'NONE',  ( 0.0000000000000000000, 0.0000000000000000000, 1.000000000000000000 ) ) ;
#91 = APPROVAL ( #213, 'UNSPECIFIED' ) ;
#92 = CARTESIAN_POINT ( 'NONE',  ( 0.0000000000000000000, 0.0000000000000000000, 150.0000000000000000 ) ) ;
#93 = CARTESIAN_POINT ( 'NONE',  ( 0.0000000000000000000, 0.0000000000000000000, 0.0000000000000000000 ) ) ;
#94 = LOCAL_TIME ( 14, 41, 57.00000000000000000, #172 ) ;
#95 = DATE_AND_TIME ( #99, #43 ) ;
#96 = APPROVAL ( #137, 'UNSPECIFIED' ) ;
#97 = APPLICATION_CONTEXT ( 'configuration controlled 3d designs of mechanical parts and assemblies' ) ;
#98 = SECURITY_CLASSIFICATION_LEVEL ( 'unclassified' ) ;
#99 = CALENDAR_DATE ( 2020, 15, 10 ) ;
#100 = AXIS2_PLACEMENT_3D ( 'NONE', #171, #19, #41 ) ;
#101 = PERSON_AND_ORGANIZATION ( #20, #163 ) ;
#102 = EDGE_CURVE ( 'NONE', #12, #12, #45, .T. ) ;
#103 = ORIENTED_EDGE ( 'NONE', *, *, #200, .F. ) ;
#104 = EDGE_LOOP ( 'NONE', ( #54 ) ) ;
#105 = LOCAL_TIME ( 14, 41, 57.00000000000000000, #15 ) ;
#106 = EDGE_LOOP ( 'NONE', ( #120 ) ) ;
#107 = ADVANCED_FACE ( 'NONE', ( #57, #7 ), #55, .T. ) ;
#108 = EDGE_LOOP ( 'NONE', ( #81 ) ) ;
#109 = CARTESIAN_POINT ( 'NONE',  ( 0.0000000000000000000, 0.0000000000000000000, 150.0000000000000000 ) ) ;
#110 = DIRECTION ( 'NONE',  ( 1.000000000000000000, 0.0000000000000000000, 0.0000000000000000000 ) ) ;
#111 = CYLINDRICAL_SURFACE ( 'NONE', #18, 10.00000000000000000 ) ;
#112 = CARTESIAN_POINT ( 'NONE',  ( 10.00000000000000000, 0.0000000000000000000, -148.9999999999999432 ) ) ;
#113 = CONICAL_SURFACE ( 'NONE', #83, 10.00000000000000000, 0.7853981633974439491 ) ;
#114 = DIRECTION ( 'NONE',  ( 0.0000000000000000000, 0.0000000000000000000, 1.000000000000000000 ) ) ;
#115 = APPROVAL_ROLE ( '' ) ;
#116 = CC_DESIGN_DATE_AND_TIME_ASSIGNMENT ( #36, #50, ( #46 ) ) ;
#117 = CIRCLE ( 'NONE', #183, 4.249999999999992895 ) ;
#118 = PRODUCT_DEFINITION_SHAPE ( 'NONE', 'NONE',  #46 ) ;
#119 = APPROVAL_DATE_TIME ( #33, #91 ) ;
#120 = ORIENTED_EDGE ( 'NONE', *, *, #210, .F. ) ;
#121 = APPLICATION_CONTEXT ( 'configuration controlled 3d designs of mechanical parts and assemblies' ) ;
#122 = AXIS2_PLACEMENT_3D ( 'NONE', #109, #26, #160 ) ;
#123 = EDGE_LOOP ( 'NONE', ( #103 ) ) ;
#124 = FACE_OUTER_BOUND ( 'NONE', #104, .T. ) ;
#125 = MANIFOLD_SOLID_BREP ( 'Trou taraudé M101', #150 ) ;
#126 = FACE_OUTER_BOUND ( 'NONE', #85, .T. ) ;
#127 = DIRECTION ( 'NONE',  ( -0.0000000000000000000, -0.0000000000000000000, 1.000000000000000000 ) ) ;
#128 = CARTESIAN_POINT ( 'NONE',  ( 0.0000000000000000000, 0.0000000000000000000, -148.9999999999999432 ) ) ;
#129 = CARTESIAN_POINT ( 'NONE',  ( 0.0000000000000000000, 0.0000000000000000000, 150.0000000000000000 ) ) ;
#130 = CARTESIAN_POINT ( 'NONE',  ( 0.0000000000000000000, 0.0000000000000000000, 150.0000000000000000 ) ) ;
#131 = AXIS2_PLACEMENT_3D ( 'NONE', #9, #90, #110 ) ;
#132 = FACE_OUTER_BOUND ( 'NONE', #39, .T. ) ;
#133 = DIRECTION ( 'NONE',  ( 1.000000000000000000, 0.0000000000000000000, 0.0000000000000000000 ) ) ;
#134 = CARTESIAN_POINT ( 'NONE',  ( 4.250000000000000000, 0.0000000000000000000, 150.0000000000000000 ) ) ;
#135 = SECURITY_CLASSIFICATION ( '', '', #98 ) ;
#136 = COORDINATED_UNIVERSAL_TIME_OFFSET ( 1, 0, .AHEAD. ) ;
#137 = APPROVAL_STATUS ( 'not_yet_approved' ) ;
#138 = PERSON_AND_ORGANIZATION_ROLE ( 'design_owner' ) ;
#139 = CC_DESIGN_APPROVAL ( #91, ( #46 ) ) ;
#140 = DIRECTION ( 'NONE',  ( 0.0000000000000000000, 0.0000000000000000000, 1.000000000000000000 ) ) ;
#141 = ADVANCED_FACE ( 'NONE', ( #142 ), #191, .F. ) ;
#142 = FACE_OUTER_BOUND ( 'NONE', #59, .T. ) ;
#143 = CARTESIAN_POINT ( 'NONE',  ( 0.0000000000000000000, 0.0000000000000000000, -148.9999999999999432 ) ) ;
#144 = AXIS2_PLACEMENT_3D ( 'NONE', #207, #25, #84 ) ;
#145 = FACE_OUTER_BOUND ( 'NONE', #203, .T. ) ;
#146 = EDGE_LOOP ( 'NONE', ( #190 ) ) ;
#147 = FACE_OUTER_BOUND ( 'NONE', #108, .T. ) ;
#148 = CC_DESIGN_DATE_AND_TIME_ASSIGNMENT ( #153, #65, ( #135 ) ) ;
#149 = VERTEX_POINT ( 'NONE', #112 ) ;
#150 = CLOSED_SHELL ( 'NONE', ( #177, #189, #141, #8, #107, #52, #193 ) ) ;
#151 = CC_DESIGN_PERSON_AND_ORGANIZATION_ASSIGNMENT ( #64, #66, ( #6 ) ) ;
#152 = PERSON_AND_ORGANIZATION ( #20, #163 ) ;
#153 = DATE_AND_TIME ( #79, #105 ) ;
#154 = PERSON_AND_ORGANIZATION_ROLE ( 'design_supplier' ) ;
#155 = CIRCLE ( 'NONE', #144, 8.999999999999952038 ) ;
#156 = DIRECTION ( 'NONE',  ( 0.0000000000000000000, 0.0000000000000000000, 1.000000000000000000 ) ) ;
#157 = DIRECTION ( 'NONE',  ( -0.0000000000000000000, -0.0000000000000000000, 1.000000000000000000 ) ) ;
#158 = CC_DESIGN_PERSON_AND_ORGANIZATION_ASSIGNMENT ( #101, #168, ( #46 ) ) ;
#159 = ORIENTED_EDGE ( 'NONE', *, *, #210, .T. ) ;
#160 = DIRECTION ( 'NONE',  ( 1.000000000000000000, 0.0000000000000000000, 0.0000000000000000000 ) ) ;
#161 = DIRECTION ( 'NONE',  ( -1.000000000000000000, 0.0000000000000000000, 0.0000000000000000000 ) ) ;
#162 = APPROVAL ( #35, 'UNSPECIFIED' ) ;
#163 = ORGANIZATION ( 'UNSPECIFIED', 'UNSPECIFIED', '' ) ;
#164 = CARTESIAN_POINT ( 'NONE',  ( 10.00000000000000000, 0.0000000000000000000, 149.0000000000000284 ) ) ;
#165 = PERSON_AND_ORGANIZATION ( #20, #163 ) ;
#166 = AXIS2_PLACEMENT_3D ( 'NONE', #92, #114, #73 ) ;
#167 = PERSON_AND_ORGANIZATION_ROLE ( 'classification_officer' ) ;
#168 = PERSON_AND_ORGANIZATION_ROLE ( 'creator' ) ;
#169 =( NAMED_UNIT ( * ) SI_UNIT ( $, .STERADIAN. ) SOLID_ANGLE_UNIT ( ) );
#170 = AXIS2_PLACEMENT_3D ( 'NONE', #93, #156, #16 ) ;
#171 = CARTESIAN_POINT ( 'NONE',  ( 0.0000000000000000000, 0.0000000000000000000, 150.0000000000000000 ) ) ;
#172 = COORDINATED_UNIVERSAL_TIME_OFFSET ( 1, 0, .AHEAD. ) ;
#173 =( GEOMETRIC_REPRESENTATION_CONTEXT ( 3 ) GLOBAL_UNCERTAINTY_ASSIGNED_CONTEXT ( ( #28 ) ) GLOBAL_UNIT_ASSIGNED_CONTEXT ( ( #51, #187, #169 ) ) REPRESENTATION_CONTEXT ( 'NONE', 'WORKASPACE' ) );
#174 = ORIENTED_EDGE ( 'NONE', *, *, #102, .F. ) ;
#175 = EDGE_LOOP ( 'NONE', ( #67 ) ) ;
#176 = CARTESIAN_POINT ( 'NONE',  ( 0.0000000000000000000, 0.0000000000000000000, 149.0000000000000284 ) ) ;
#177 = ADVANCED_FACE ( 'NONE', ( #126, #124 ), #111, .T. ) ;
#178 = AXIS2_PLACEMENT_3D ( 'NONE', #176, #11, #48 ) ;
#179 = VERTEX_POINT ( 'NONE', #30 ) ;
#180 = CARTESIAN_POINT ( 'NONE',  ( 9.000000000000035527, 0.0000000000000000000, 150.0000000000000000 ) ) ;
#181 = PERSON_AND_ORGANIZATION ( #20, #163 ) ;
#182 = CALENDAR_DATE ( 2020, 15, 10 ) ;
#183 = AXIS2_PLACEMENT_3D ( 'NONE', #27, #75, #47 ) ;
#184 = PRODUCT ( 'Arbre TourPot', 'Arbre TourPot', '', ( #37 ) ) ;
#185 = APPLICATION_PROTOCOL_DEFINITION ( 'international standard', 'config_control_design', 1994, #97 ) ;
#186 = CC_DESIGN_PERSON_AND_ORGANIZATION_ASSIGNMENT ( #152, #167, ( #135 ) ) ;
#187 =( NAMED_UNIT ( * ) PLANE_ANGLE_UNIT ( ) SI_UNIT ( $, .RADIAN. ) );
#188 = EDGE_LOOP ( 'NONE', ( #174 ) ) ;
#189 = ADVANCED_FACE ( 'NONE', ( #195, #147 ), #62, .T. ) ;
#190 = ORIENTED_EDGE ( 'NONE', *, *, #204, .F. ) ;
#191 = PLANE ( 'NONE',  #22 ) ;
#192 = DIRECTION ( 'NONE',  ( 1.000000000000000000, 0.0000000000000000000, 0.0000000000000000000 ) ) ;
#193 = ADVANCED_FACE ( 'NONE', ( #63, #132 ), #29, .F. ) ;
#194 = APPROVAL_PERSON_ORGANIZATION ( #215, #96, #82 ) ;
#195 = FACE_BOUND ( 'NONE', #188, .T. ) ;
#196 = APPROVAL_PERSON_ORGANIZATION ( #202, #91, #49 ) ;
#197 = VERTEX_POINT ( 'NONE', #180 ) ;
#198 = CARTESIAN_POINT ( 'NONE',  ( 4.249999999999992895, 0.0000000000000000000, 105.5000000000000000 ) ) ;
#199 = APPLICATION_PROTOCOL_DEFINITION ( 'international standard', 'config_control_design', 1994, #121 ) ;
#200 = EDGE_CURVE ( 'NONE', #197, #197, #205, .T. ) ;
#201 = CONICAL_SURFACE ( 'NONE', #72, 4.249999999999992895, 1.029744258676651647 ) ;
#202 = PERSON_AND_ORGANIZATION ( #20, #163 ) ;
#203 = EDGE_LOOP ( 'NONE', ( #159 ) ) ;
#204 = EDGE_CURVE ( 'NONE', #31, #31, #60, .T. ) ;
#205 = CIRCLE ( 'NONE', #131, 9.000000000000035527 ) ;
#206 = DIRECTION ( 'NONE',  ( 1.000000000000000000, 0.0000000000000000000, -0.0000000000000000000 ) ) ;
#207 = CARTESIAN_POINT ( 'NONE',  ( 0.0000000000000000000, 0.0000000000000000000, -150.0000000000000000 ) ) ;
#208 = CC_DESIGN_PERSON_AND_ORGANIZATION_ASSIGNMENT ( #181, #138, ( #184 ) ) ;
#209 = FACE_BOUND ( 'NONE', #175, .T. ) ;
#210 = EDGE_CURVE ( 'NONE', #13, #13, #117, .T. ) ;
#211 = AXIS2_PLACEMENT_3D ( 'NONE', #143, #127, #2 ) ;
#212 = CIRCLE ( 'NONE', #211, 10.00000000000000000 ) ;
#213 = APPROVAL_STATUS ( 'not_yet_approved' ) ;
#214 = COORDINATED_UNIVERSAL_TIME_OFFSET ( 1, 0, .AHEAD. ) ;
#215 = PERSON_AND_ORGANIZATION ( #20, #163 ) ;
ENDSEC;
END-ISO-10303-21;
