ISO-10303-21;
HEADER;
/* Generated by software containing ST-Developer
 * from STEP Tools, Inc. (www.steptools.com) 
 */

FILE_DESCRIPTION(
/* description */ (''),
/* implementation_level */ '2;1');

FILE_NAME(
/* name */ 
'C:/Users/K\X\E9vin/Documents/AMZ/Produits Source/Baguette de sourcier
/tige laiton 3mm coud\X\E9e.step',
/* time_stamp */ '2020-10-12T21:31:01+02:00',
/* author */ (''),
/* organization */ (''),
/* preprocessor_version */ 'ST-DEVELOPER v18.1',
/* originating_system */ 'Autodesk Translation Framework v9.3.0.1241',
/* authorisation */ '');

FILE_SCHEMA (('AUTOMOTIVE_DESIGN { 1 0 10303 214 3 1 1 }'));
ENDSEC;

DATA;
#10=MECHANICAL_DESIGN_GEOMETRIC_PRESENTATION_REPRESENTATION('',(#13),#162);
#11=SHAPE_REPRESENTATION_RELATIONSHIP('SRR','None',#169,#12);
#12=ADVANCED_BREP_SHAPE_REPRESENTATION('',(#14),#161);
#13=STYLED_ITEM('',(#179),#14);
#14=MANIFOLD_SOLID_BREP('Brass rod',#83);
#15=TOROIDAL_SURFACE('',#103,5.,1.5);
#16=PLANE('',#102);
#17=PLANE('',#108);
#18=CYLINDRICAL_SURFACE('',#100,1.5);
#19=CYLINDRICAL_SURFACE('',#106,1.5);
#20=FACE_OUTER_BOUND('',#26,.T.);
#21=FACE_OUTER_BOUND('',#27,.T.);
#22=FACE_OUTER_BOUND('',#28,.T.);
#23=FACE_OUTER_BOUND('',#29,.T.);
#24=FACE_OUTER_BOUND('',#30,.T.);
#25=FACE_OUTER_BOUND('',#31,.T.);
#26=EDGE_LOOP('',(#58,#59,#60,#61));
#27=EDGE_LOOP('',(#62,#63,#64,#65));
#28=EDGE_LOOP('',(#66));
#29=EDGE_LOOP('',(#67,#68,#69,#70));
#30=EDGE_LOOP('',(#71,#72,#73,#74));
#31=EDGE_LOOP('',(#75));
#32=LINE('',#143,#35);
#33=LINE('',#147,#36);
#34=LINE('',#156,#37);
#35=VECTOR('',#115,1.45);
#36=VECTOR('',#120,1.5);
#37=VECTOR('',#133,1.5);
#38=CIRCLE('',#98,1.4);
#39=CIRCLE('',#99,1.5);
#40=CIRCLE('',#101,1.5);
#41=CIRCLE('',#104,3.5);
#42=CIRCLE('',#105,1.5);
#43=CIRCLE('',#107,1.5);
#44=VERTEX_POINT('',#140);
#45=VERTEX_POINT('',#142);
#46=VERTEX_POINT('',#146);
#47=VERTEX_POINT('',#151);
#48=VERTEX_POINT('',#155);
#49=EDGE_CURVE('',#44,#44,#38,.T.);
#50=EDGE_CURVE('',#44,#45,#32,.T.);
#51=EDGE_CURVE('',#45,#45,#39,.T.);
#52=EDGE_CURVE('',#45,#46,#33,.T.);
#53=EDGE_CURVE('',#46,#46,#40,.T.);
#54=EDGE_CURVE('',#46,#47,#41,.T.);
#55=EDGE_CURVE('',#47,#47,#42,.T.);
#56=EDGE_CURVE('',#47,#48,#34,.T.);
#57=EDGE_CURVE('',#48,#48,#43,.T.);
#58=ORIENTED_EDGE('',*,*,#49,.T.);
#59=ORIENTED_EDGE('',*,*,#50,.T.);
#60=ORIENTED_EDGE('',*,*,#51,.T.);
#61=ORIENTED_EDGE('',*,*,#50,.F.);
#62=ORIENTED_EDGE('',*,*,#51,.F.);
#63=ORIENTED_EDGE('',*,*,#52,.T.);
#64=ORIENTED_EDGE('',*,*,#53,.T.);
#65=ORIENTED_EDGE('',*,*,#52,.F.);
#66=ORIENTED_EDGE('',*,*,#49,.F.);
#67=ORIENTED_EDGE('',*,*,#53,.F.);
#68=ORIENTED_EDGE('',*,*,#54,.T.);
#69=ORIENTED_EDGE('',*,*,#55,.T.);
#70=ORIENTED_EDGE('',*,*,#54,.F.);
#71=ORIENTED_EDGE('',*,*,#55,.F.);
#72=ORIENTED_EDGE('',*,*,#56,.T.);
#73=ORIENTED_EDGE('',*,*,#57,.T.);
#74=ORIENTED_EDGE('',*,*,#56,.F.);
#75=ORIENTED_EDGE('',*,*,#57,.F.);
#76=CONICAL_SURFACE('',#97,1.45,0.785398163397538);
#77=ADVANCED_FACE('',(#20),#76,.T.);
#78=ADVANCED_FACE('',(#21),#18,.T.);
#79=ADVANCED_FACE('',(#22),#16,.T.);
#80=ADVANCED_FACE('',(#23),#15,.T.);
#81=ADVANCED_FACE('',(#24),#19,.T.);
#82=ADVANCED_FACE('',(#25),#17,.F.);
#83=CLOSED_SHELL('',(#77,#78,#79,#80,#81,#82));
#84=DERIVED_UNIT_ELEMENT(#86,1.);
#85=DERIVED_UNIT_ELEMENT(#164,3.);
#86=(
MASS_UNIT()
NAMED_UNIT(*)
SI_UNIT(.KILO.,.GRAM.)
);
#87=DERIVED_UNIT((#84,#85));
#88=MEASURE_REPRESENTATION_ITEM('density measure',
POSITIVE_RATIO_MEASURE(7850.),#87);
#89=PROPERTY_DEFINITION_REPRESENTATION(#94,#91);
#90=PROPERTY_DEFINITION_REPRESENTATION(#95,#92);
#91=REPRESENTATION('material name',(#93),#161);
#92=REPRESENTATION('density',(#88),#161);
#93=DESCRIPTIVE_REPRESENTATION_ITEM('Acier','Acier');
#94=PROPERTY_DEFINITION('material property','material name',#171);
#95=PROPERTY_DEFINITION('material property','density of part',#171);
#96=AXIS2_PLACEMENT_3D('placement',#138,#109,#110);
#97=AXIS2_PLACEMENT_3D('',#139,#111,#112);
#98=AXIS2_PLACEMENT_3D('',#141,#113,#114);
#99=AXIS2_PLACEMENT_3D('',#144,#116,#117);
#100=AXIS2_PLACEMENT_3D('',#145,#118,#119);
#101=AXIS2_PLACEMENT_3D('',#148,#121,#122);
#102=AXIS2_PLACEMENT_3D('',#149,#123,#124);
#103=AXIS2_PLACEMENT_3D('',#150,#125,#126);
#104=AXIS2_PLACEMENT_3D('',#152,#127,#128);
#105=AXIS2_PLACEMENT_3D('',#153,#129,#130);
#106=AXIS2_PLACEMENT_3D('',#154,#131,#132);
#107=AXIS2_PLACEMENT_3D('',#157,#134,#135);
#108=AXIS2_PLACEMENT_3D('',#158,#136,#137);
#109=DIRECTION('axis',(0.,0.,1.));
#110=DIRECTION('refdir',(1.,0.,0.));
#111=DIRECTION('center_axis',(1.,0.,0.));
#112=DIRECTION('ref_axis',(1.36709741642247E-16,0.,1.));
#113=DIRECTION('center_axis',(1.,0.,-6.12323399573677E-17));
#114=DIRECTION('ref_axis',(6.12323399573677E-17,0.,1.));
#115=DIRECTION('',(0.707106781186485,-8.6595605623557E-17,-0.70710678118661));
#116=DIRECTION('center_axis',(-1.,0.,6.12323399573677E-17));
#117=DIRECTION('ref_axis',(2.07155316548134E-16,0.,1.));
#118=DIRECTION('center_axis',(-1.,0.,2.07155316548134E-16));
#119=DIRECTION('ref_axis',(2.07155316548134E-16,0.,1.));
#120=DIRECTION('',(1.,0.,-2.07155316548134E-16));
#121=DIRECTION('center_axis',(-1.,0.,6.12323399573677E-17));
#122=DIRECTION('ref_axis',(6.12323399573677E-17,0.,1.));
#123=DIRECTION('center_axis',(-1.,0.,6.12323399573677E-17));
#124=DIRECTION('ref_axis',(6.12323399573677E-17,0.,1.));
#125=DIRECTION('center_axis',(0.,-1.,0.));
#126=DIRECTION('ref_axis',(0.,0.,-1.));
#127=DIRECTION('center_axis',(0.,1.,0.));
#128=DIRECTION('ref_axis',(0.,0.,-1.));
#129=DIRECTION('center_axis',(0.,0.,1.));
#130=DIRECTION('ref_axis',(1.,0.,0.));
#131=DIRECTION('center_axis',(0.,0.,1.));
#132=DIRECTION('ref_axis',(1.,0.,0.));
#133=DIRECTION('',(0.,0.,-1.));
#134=DIRECTION('center_axis',(0.,0.,1.));
#135=DIRECTION('ref_axis',(1.,0.,0.));
#136=DIRECTION('center_axis',(0.,0.,1.));
#137=DIRECTION('ref_axis',(1.,0.,0.));
#138=CARTESIAN_POINT('',(0.,0.,0.));
#139=CARTESIAN_POINT('Origin',(-347.95,0.,116.5));
#140=CARTESIAN_POINT('',(-348.,1.7145055188063E-16,115.1));
#141=CARTESIAN_POINT('Origin',(-348.,0.,116.5));
#142=CARTESIAN_POINT('',(-347.9,-1.83697019872103E-16,115.));
#143=CARTESIAN_POINT('',(-347.95,-1.77573785876366E-16,115.05));
#144=CARTESIAN_POINT('Origin',(-347.9,0.,116.5));
#145=CARTESIAN_POINT('Origin',(-5.,0.,116.5));
#146=CARTESIAN_POINT('',(-5.,-1.83697019872103E-16,115.));
#147=CARTESIAN_POINT('',(-5.,-1.83697019872103E-16,115.));
#148=CARTESIAN_POINT('Origin',(-5.,0.,116.5));
#149=CARTESIAN_POINT('Origin',(-348.,0.,116.5));
#150=CARTESIAN_POINT('Origin',(-5.,0.,111.5));
#151=CARTESIAN_POINT('',(-1.5,-1.83697019872103E-16,111.5));
#152=CARTESIAN_POINT('Origin',(-5.,1.83697019872103E-16,111.5));
#153=CARTESIAN_POINT('Origin',(0.,0.,111.5));
#154=CARTESIAN_POINT('Origin',(0.,0.,0.));
#155=CARTESIAN_POINT('',(-1.5,-1.83697019872103E-16,0.));
#156=CARTESIAN_POINT('',(-1.5,-1.83697019872103E-16,0.));
#157=CARTESIAN_POINT('Origin',(0.,0.,0.));
#158=CARTESIAN_POINT('Origin',(0.,0.,0.));
#159=UNCERTAINTY_MEASURE_WITH_UNIT(LENGTH_MEASURE(0.01),#163,
'DISTANCE_ACCURACY_VALUE',
'Maximum model space distance between geometric entities at asserted c
onnectivities');
#160=UNCERTAINTY_MEASURE_WITH_UNIT(LENGTH_MEASURE(0.01),#163,
'DISTANCE_ACCURACY_VALUE',
'Maximum model space distance between geometric entities at asserted c
onnectivities');
#161=(
GEOMETRIC_REPRESENTATION_CONTEXT(3)
GLOBAL_UNCERTAINTY_ASSIGNED_CONTEXT((#159))
GLOBAL_UNIT_ASSIGNED_CONTEXT((#163,#165,#166))
REPRESENTATION_CONTEXT('','3D')
);
#162=(
GEOMETRIC_REPRESENTATION_CONTEXT(3)
GLOBAL_UNCERTAINTY_ASSIGNED_CONTEXT((#160))
GLOBAL_UNIT_ASSIGNED_CONTEXT((#163,#165,#166))
REPRESENTATION_CONTEXT('','3D')
);
#163=(
LENGTH_UNIT()
NAMED_UNIT(*)
SI_UNIT(.MILLI.,.METRE.)
);
#164=(
LENGTH_UNIT()
NAMED_UNIT(*)
SI_UNIT($,.METRE.)
);
#165=(
NAMED_UNIT(*)
PLANE_ANGLE_UNIT()
SI_UNIT($,.RADIAN.)
);
#166=(
NAMED_UNIT(*)
SI_UNIT($,.STERADIAN.)
SOLID_ANGLE_UNIT()
);
#167=SHAPE_DEFINITION_REPRESENTATION(#168,#169);
#168=PRODUCT_DEFINITION_SHAPE('',$,#171);
#169=SHAPE_REPRESENTATION('',(#96),#161);
#170=PRODUCT_DEFINITION_CONTEXT('part definition',#175,'design');
#171=PRODUCT_DEFINITION('tige laiton 3mm coud\X\E9e',
'tige laiton 3mm coud\X\E9e v1',#172,#170);
#172=PRODUCT_DEFINITION_FORMATION('',$,#177);
#173=PRODUCT_RELATED_PRODUCT_CATEGORY('tige laiton 3mm coud\X\E9e v1',
'tige laiton 3mm coud\X\E9e v1',(#177));
#174=APPLICATION_PROTOCOL_DEFINITION('international standard',
'automotive_design',2009,#175);
#175=APPLICATION_CONTEXT(
'Core Data for Automotive Mechanical Design Process');
#176=PRODUCT_CONTEXT('part definition',#175,'mechanical');
#177=PRODUCT('tige laiton 3mm coud\X\E9e','tige laiton 3mm coud\X\E9e 
v1',$,(#176));
#178=PRESENTATION_STYLE_ASSIGNMENT((#180));
#179=PRESENTATION_STYLE_ASSIGNMENT((#181));
#180=SURFACE_STYLE_USAGE(.BOTH.,#182);
#181=SURFACE_STYLE_USAGE(.BOTH.,#183);
#182=SURFACE_SIDE_STYLE('',(#184));
#183=SURFACE_SIDE_STYLE('',(#185));
#184=SURFACE_STYLE_FILL_AREA(#186);
#185=SURFACE_STYLE_FILL_AREA(#187);
#186=FILL_AREA_STYLE('Acier - Satin\X\E9',(#188));
#187=FILL_AREA_STYLE('Laiton - Mat',(#189));
#188=FILL_AREA_STYLE_COLOUR('Acier - Satin\X\E9',#190);
#189=FILL_AREA_STYLE_COLOUR('Laiton - Mat',#191);
#190=COLOUR_RGB('Acier - Satin\X\E9',0.627450980392157,0.627450980392157,
0.627450980392157);
#191=COLOUR_RGB('Laiton - Mat',0.952941176470588,0.796078431372549,0.486274509803922);
ENDSEC;
END-ISO-10303-21;
