ISO-10303-21;
HEADER;
/* Generated by software containing ST-Developer
 * from STEP Tools, Inc. (www.steptools.com) 
 */

FILE_DESCRIPTION(
/* description */ (''),
/* implementation_level */ '2;1');

FILE_NAME(
/* name */ '/Users/Home/Desktop/essieu_poubelle_final.step',
/* time_stamp */ '2020-10-04T19:52:57+02:00',
/* author */ (''),
/* organization */ (''),
/* preprocessor_version */ 'ST-DEVELOPER v18.1',
/* originating_system */ 'Autodesk Translation Framework v9.3.0.1241',
/* authorisation */ '');

FILE_SCHEMA (('AUTOMOTIVE_DESIGN { 1 0 10303 214 3 1 1 }'));
ENDSEC;

DATA;
#10=MECHANICAL_DESIGN_GEOMETRIC_PRESENTATION_REPRESENTATION('',(#13),#356);
#11=SHAPE_REPRESENTATION_RELATIONSHIP('SRR','None',#363,#12);
#12=ADVANCED_BREP_SHAPE_REPRESENTATION('',(#14),#355);
#13=STYLED_ITEM('',(#372),#14);
#14=MANIFOLD_SOLID_BREP('Corps1',#192);
#15=FACE_BOUND('',#60,.T.);
#16=FACE_BOUND('',#63,.T.);
#17=FACE_BOUND('',#66,.T.);
#18=FACE_BOUND('',#69,.T.);
#19=FACE_BOUND('',#72,.T.);
#20=FACE_BOUND('',#75,.T.);
#21=LINE('',#309,#28);
#22=LINE('',#316,#29);
#23=LINE('',#323,#30);
#24=LINE('',#330,#31);
#25=LINE('',#337,#32);
#26=LINE('',#344,#33);
#27=LINE('',#351,#34);
#28=VECTOR('',#245,4.95);
#29=VECTOR('',#254,12.85);
#30=VECTOR('',#263,18.);
#31=VECTOR('',#272,20.);
#32=VECTOR('',#281,18.);
#33=VECTOR('',#290,12.85);
#34=VECTOR('',#299,4.95);
#35=CYLINDRICAL_SURFACE('',#208,4.95);
#36=CYLINDRICAL_SURFACE('',#212,12.85);
#37=CYLINDRICAL_SURFACE('',#216,18.);
#38=CYLINDRICAL_SURFACE('',#220,20.);
#39=CYLINDRICAL_SURFACE('',#224,18.);
#40=CYLINDRICAL_SURFACE('',#228,12.85);
#41=CYLINDRICAL_SURFACE('',#232,4.95);
#42=FACE_OUTER_BOUND('',#57,.T.);
#43=FACE_OUTER_BOUND('',#58,.T.);
#44=FACE_OUTER_BOUND('',#59,.T.);
#45=FACE_OUTER_BOUND('',#61,.T.);
#46=FACE_OUTER_BOUND('',#62,.T.);
#47=FACE_OUTER_BOUND('',#64,.T.);
#48=FACE_OUTER_BOUND('',#65,.T.);
#49=FACE_OUTER_BOUND('',#67,.T.);
#50=FACE_OUTER_BOUND('',#68,.T.);
#51=FACE_OUTER_BOUND('',#70,.T.);
#52=FACE_OUTER_BOUND('',#71,.T.);
#53=FACE_OUTER_BOUND('',#73,.T.);
#54=FACE_OUTER_BOUND('',#74,.T.);
#55=FACE_OUTER_BOUND('',#76,.T.);
#56=FACE_OUTER_BOUND('',#77,.T.);
#57=EDGE_LOOP('',(#127));
#58=EDGE_LOOP('',(#128,#129,#130,#131));
#59=EDGE_LOOP('',(#132));
#60=EDGE_LOOP('',(#133));
#61=EDGE_LOOP('',(#134,#135,#136,#137));
#62=EDGE_LOOP('',(#138));
#63=EDGE_LOOP('',(#139));
#64=EDGE_LOOP('',(#140,#141,#142,#143));
#65=EDGE_LOOP('',(#144));
#66=EDGE_LOOP('',(#145));
#67=EDGE_LOOP('',(#146,#147,#148,#149));
#68=EDGE_LOOP('',(#150));
#69=EDGE_LOOP('',(#151));
#70=EDGE_LOOP('',(#152,#153,#154,#155));
#71=EDGE_LOOP('',(#156));
#72=EDGE_LOOP('',(#157));
#73=EDGE_LOOP('',(#158,#159,#160,#161));
#74=EDGE_LOOP('',(#162));
#75=EDGE_LOOP('',(#163));
#76=EDGE_LOOP('',(#164,#165,#166,#167));
#77=EDGE_LOOP('',(#168));
#78=CIRCLE('',#207,4.95);
#79=CIRCLE('',#209,4.95);
#80=CIRCLE('',#211,12.85);
#81=CIRCLE('',#213,12.85);
#82=CIRCLE('',#215,18.);
#83=CIRCLE('',#217,18.);
#84=CIRCLE('',#219,20.);
#85=CIRCLE('',#221,20.);
#86=CIRCLE('',#223,18.);
#87=CIRCLE('',#225,18.);
#88=CIRCLE('',#227,12.85);
#89=CIRCLE('',#229,12.85);
#90=CIRCLE('',#231,4.95);
#91=CIRCLE('',#233,4.95);
#92=VERTEX_POINT('',#304);
#93=VERTEX_POINT('',#307);
#94=VERTEX_POINT('',#311);
#95=VERTEX_POINT('',#314);
#96=VERTEX_POINT('',#318);
#97=VERTEX_POINT('',#321);
#98=VERTEX_POINT('',#325);
#99=VERTEX_POINT('',#328);
#100=VERTEX_POINT('',#332);
#101=VERTEX_POINT('',#335);
#102=VERTEX_POINT('',#339);
#103=VERTEX_POINT('',#342);
#104=VERTEX_POINT('',#346);
#105=VERTEX_POINT('',#349);
#106=EDGE_CURVE('',#92,#92,#78,.T.);
#107=EDGE_CURVE('',#93,#93,#79,.T.);
#108=EDGE_CURVE('',#93,#92,#21,.T.);
#109=EDGE_CURVE('',#94,#94,#80,.T.);
#110=EDGE_CURVE('',#95,#95,#81,.T.);
#111=EDGE_CURVE('',#95,#94,#22,.T.);
#112=EDGE_CURVE('',#96,#96,#82,.T.);
#113=EDGE_CURVE('',#97,#97,#83,.T.);
#114=EDGE_CURVE('',#97,#96,#23,.T.);
#115=EDGE_CURVE('',#98,#98,#84,.T.);
#116=EDGE_CURVE('',#99,#99,#85,.T.);
#117=EDGE_CURVE('',#99,#98,#24,.T.);
#118=EDGE_CURVE('',#100,#100,#86,.T.);
#119=EDGE_CURVE('',#101,#101,#87,.T.);
#120=EDGE_CURVE('',#101,#100,#25,.T.);
#121=EDGE_CURVE('',#102,#102,#88,.T.);
#122=EDGE_CURVE('',#103,#103,#89,.T.);
#123=EDGE_CURVE('',#103,#102,#26,.T.);
#124=EDGE_CURVE('',#104,#104,#90,.T.);
#125=EDGE_CURVE('',#105,#105,#91,.T.);
#126=EDGE_CURVE('',#105,#104,#27,.T.);
#127=ORIENTED_EDGE('',*,*,#106,.F.);
#128=ORIENTED_EDGE('',*,*,#107,.F.);
#129=ORIENTED_EDGE('',*,*,#108,.T.);
#130=ORIENTED_EDGE('',*,*,#106,.T.);
#131=ORIENTED_EDGE('',*,*,#108,.F.);
#132=ORIENTED_EDGE('',*,*,#109,.F.);
#133=ORIENTED_EDGE('',*,*,#107,.T.);
#134=ORIENTED_EDGE('',*,*,#110,.F.);
#135=ORIENTED_EDGE('',*,*,#111,.T.);
#136=ORIENTED_EDGE('',*,*,#109,.T.);
#137=ORIENTED_EDGE('',*,*,#111,.F.);
#138=ORIENTED_EDGE('',*,*,#112,.F.);
#139=ORIENTED_EDGE('',*,*,#110,.T.);
#140=ORIENTED_EDGE('',*,*,#113,.F.);
#141=ORIENTED_EDGE('',*,*,#114,.T.);
#142=ORIENTED_EDGE('',*,*,#112,.T.);
#143=ORIENTED_EDGE('',*,*,#114,.F.);
#144=ORIENTED_EDGE('',*,*,#115,.F.);
#145=ORIENTED_EDGE('',*,*,#113,.T.);
#146=ORIENTED_EDGE('',*,*,#116,.F.);
#147=ORIENTED_EDGE('',*,*,#117,.T.);
#148=ORIENTED_EDGE('',*,*,#115,.T.);
#149=ORIENTED_EDGE('',*,*,#117,.F.);
#150=ORIENTED_EDGE('',*,*,#116,.T.);
#151=ORIENTED_EDGE('',*,*,#118,.F.);
#152=ORIENTED_EDGE('',*,*,#119,.F.);
#153=ORIENTED_EDGE('',*,*,#120,.T.);
#154=ORIENTED_EDGE('',*,*,#118,.T.);
#155=ORIENTED_EDGE('',*,*,#120,.F.);
#156=ORIENTED_EDGE('',*,*,#119,.T.);
#157=ORIENTED_EDGE('',*,*,#121,.F.);
#158=ORIENTED_EDGE('',*,*,#122,.F.);
#159=ORIENTED_EDGE('',*,*,#123,.T.);
#160=ORIENTED_EDGE('',*,*,#121,.T.);
#161=ORIENTED_EDGE('',*,*,#123,.F.);
#162=ORIENTED_EDGE('',*,*,#122,.T.);
#163=ORIENTED_EDGE('',*,*,#124,.F.);
#164=ORIENTED_EDGE('',*,*,#125,.F.);
#165=ORIENTED_EDGE('',*,*,#126,.T.);
#166=ORIENTED_EDGE('',*,*,#124,.T.);
#167=ORIENTED_EDGE('',*,*,#126,.F.);
#168=ORIENTED_EDGE('',*,*,#125,.T.);
#169=PLANE('',#206);
#170=PLANE('',#210);
#171=PLANE('',#214);
#172=PLANE('',#218);
#173=PLANE('',#222);
#174=PLANE('',#226);
#175=PLANE('',#230);
#176=PLANE('',#234);
#177=ADVANCED_FACE('',(#42),#169,.T.);
#178=ADVANCED_FACE('',(#43),#35,.T.);
#179=ADVANCED_FACE('',(#44,#15),#170,.T.);
#180=ADVANCED_FACE('',(#45),#36,.T.);
#181=ADVANCED_FACE('',(#46,#16),#171,.T.);
#182=ADVANCED_FACE('',(#47),#37,.T.);
#183=ADVANCED_FACE('',(#48,#17),#172,.T.);
#184=ADVANCED_FACE('',(#49),#38,.T.);
#185=ADVANCED_FACE('',(#50,#18),#173,.T.);
#186=ADVANCED_FACE('',(#51),#39,.T.);
#187=ADVANCED_FACE('',(#52,#19),#174,.T.);
#188=ADVANCED_FACE('',(#53),#40,.T.);
#189=ADVANCED_FACE('',(#54,#20),#175,.T.);
#190=ADVANCED_FACE('',(#55),#41,.T.);
#191=ADVANCED_FACE('',(#56),#176,.T.);
#192=CLOSED_SHELL('',(#177,#178,#179,#180,#181,#182,#183,#184,#185,#186,
#187,#188,#189,#190,#191));
#193=DERIVED_UNIT_ELEMENT(#195,1.);
#194=DERIVED_UNIT_ELEMENT(#358,3.);
#195=(
MASS_UNIT()
NAMED_UNIT(*)
SI_UNIT(.KILO.,.GRAM.)
);
#196=DERIVED_UNIT((#193,#194));
#197=MEASURE_REPRESENTATION_ITEM('density measure',
POSITIVE_RATIO_MEASURE(7850.),#196);
#198=PROPERTY_DEFINITION_REPRESENTATION(#203,#200);
#199=PROPERTY_DEFINITION_REPRESENTATION(#204,#201);
#200=REPRESENTATION('material name',(#202),#355);
#201=REPRESENTATION('density',(#197),#355);
#202=DESCRIPTIVE_REPRESENTATION_ITEM('Acier','Acier');
#203=PROPERTY_DEFINITION('material property','material name',#365);
#204=PROPERTY_DEFINITION('material property','density of part',#365);
#205=AXIS2_PLACEMENT_3D('placement',#302,#235,#236);
#206=AXIS2_PLACEMENT_3D('',#303,#237,#238);
#207=AXIS2_PLACEMENT_3D('',#305,#239,#240);
#208=AXIS2_PLACEMENT_3D('',#306,#241,#242);
#209=AXIS2_PLACEMENT_3D('',#308,#243,#244);
#210=AXIS2_PLACEMENT_3D('',#310,#246,#247);
#211=AXIS2_PLACEMENT_3D('',#312,#248,#249);
#212=AXIS2_PLACEMENT_3D('',#313,#250,#251);
#213=AXIS2_PLACEMENT_3D('',#315,#252,#253);
#214=AXIS2_PLACEMENT_3D('',#317,#255,#256);
#215=AXIS2_PLACEMENT_3D('',#319,#257,#258);
#216=AXIS2_PLACEMENT_3D('',#320,#259,#260);
#217=AXIS2_PLACEMENT_3D('',#322,#261,#262);
#218=AXIS2_PLACEMENT_3D('',#324,#264,#265);
#219=AXIS2_PLACEMENT_3D('',#326,#266,#267);
#220=AXIS2_PLACEMENT_3D('',#327,#268,#269);
#221=AXIS2_PLACEMENT_3D('',#329,#270,#271);
#222=AXIS2_PLACEMENT_3D('',#331,#273,#274);
#223=AXIS2_PLACEMENT_3D('',#333,#275,#276);
#224=AXIS2_PLACEMENT_3D('',#334,#277,#278);
#225=AXIS2_PLACEMENT_3D('',#336,#279,#280);
#226=AXIS2_PLACEMENT_3D('',#338,#282,#283);
#227=AXIS2_PLACEMENT_3D('',#340,#284,#285);
#228=AXIS2_PLACEMENT_3D('',#341,#286,#287);
#229=AXIS2_PLACEMENT_3D('',#343,#288,#289);
#230=AXIS2_PLACEMENT_3D('',#345,#291,#292);
#231=AXIS2_PLACEMENT_3D('',#347,#293,#294);
#232=AXIS2_PLACEMENT_3D('',#348,#295,#296);
#233=AXIS2_PLACEMENT_3D('',#350,#297,#298);
#234=AXIS2_PLACEMENT_3D('',#352,#300,#301);
#235=DIRECTION('axis',(0.,0.,1.));
#236=DIRECTION('refdir',(1.,0.,0.));
#237=DIRECTION('center_axis',(1.,0.,0.));
#238=DIRECTION('ref_axis',(0.,0.,-1.));
#239=DIRECTION('center_axis',(-1.,0.,0.));
#240=DIRECTION('ref_axis',(0.,0.,1.));
#241=DIRECTION('center_axis',(-1.,0.,0.));
#242=DIRECTION('ref_axis',(0.,-1.,0.));
#243=DIRECTION('center_axis',(-1.,0.,0.));
#244=DIRECTION('ref_axis',(0.,0.,1.));
#245=DIRECTION('',(1.,0.,0.));
#246=DIRECTION('center_axis',(1.,0.,0.));
#247=DIRECTION('ref_axis',(0.,0.,-1.));
#248=DIRECTION('center_axis',(-1.,0.,0.));
#249=DIRECTION('ref_axis',(0.,0.,1.));
#250=DIRECTION('center_axis',(-1.,0.,0.));
#251=DIRECTION('ref_axis',(0.,-1.,0.));
#252=DIRECTION('center_axis',(-1.,0.,0.));
#253=DIRECTION('ref_axis',(0.,0.,1.));
#254=DIRECTION('',(1.,0.,0.));
#255=DIRECTION('center_axis',(1.,0.,0.));
#256=DIRECTION('ref_axis',(0.,0.,-1.));
#257=DIRECTION('center_axis',(-1.,0.,0.));
#258=DIRECTION('ref_axis',(0.,0.,1.));
#259=DIRECTION('center_axis',(-1.,0.,0.));
#260=DIRECTION('ref_axis',(0.,-1.,0.));
#261=DIRECTION('center_axis',(-1.,0.,0.));
#262=DIRECTION('ref_axis',(0.,0.,1.));
#263=DIRECTION('',(1.,0.,0.));
#264=DIRECTION('center_axis',(1.,0.,0.));
#265=DIRECTION('ref_axis',(0.,0.,-1.));
#266=DIRECTION('center_axis',(-1.,0.,0.));
#267=DIRECTION('ref_axis',(0.,0.,1.));
#268=DIRECTION('center_axis',(-1.,0.,0.));
#269=DIRECTION('ref_axis',(0.,-1.,0.));
#270=DIRECTION('center_axis',(-1.,0.,0.));
#271=DIRECTION('ref_axis',(0.,0.,1.));
#272=DIRECTION('',(1.,0.,0.));
#273=DIRECTION('center_axis',(-1.,0.,0.));
#274=DIRECTION('ref_axis',(0.,0.,1.));
#275=DIRECTION('center_axis',(-1.,0.,0.));
#276=DIRECTION('ref_axis',(0.,0.,1.));
#277=DIRECTION('center_axis',(-1.,0.,0.));
#278=DIRECTION('ref_axis',(0.,-1.,0.));
#279=DIRECTION('center_axis',(-1.,0.,0.));
#280=DIRECTION('ref_axis',(0.,0.,1.));
#281=DIRECTION('',(1.,0.,0.));
#282=DIRECTION('center_axis',(-1.,0.,0.));
#283=DIRECTION('ref_axis',(0.,0.,1.));
#284=DIRECTION('center_axis',(-1.,0.,0.));
#285=DIRECTION('ref_axis',(0.,0.,1.));
#286=DIRECTION('center_axis',(-1.,0.,0.));
#287=DIRECTION('ref_axis',(0.,-1.,0.));
#288=DIRECTION('center_axis',(-1.,0.,0.));
#289=DIRECTION('ref_axis',(0.,0.,1.));
#290=DIRECTION('',(1.,0.,0.));
#291=DIRECTION('center_axis',(-1.,0.,0.));
#292=DIRECTION('ref_axis',(0.,0.,1.));
#293=DIRECTION('center_axis',(-1.,0.,0.));
#294=DIRECTION('ref_axis',(0.,0.,1.));
#295=DIRECTION('center_axis',(-1.,0.,0.));
#296=DIRECTION('ref_axis',(0.,-1.,0.));
#297=DIRECTION('center_axis',(-1.,0.,0.));
#298=DIRECTION('ref_axis',(0.,0.,1.));
#299=DIRECTION('',(1.,0.,0.));
#300=DIRECTION('center_axis',(-1.,0.,0.));
#301=DIRECTION('ref_axis',(0.,0.,1.));
#302=CARTESIAN_POINT('',(0.,0.,0.));
#303=CARTESIAN_POINT('Origin',(352.5,-4.95,0.));
#304=CARTESIAN_POINT('',(352.5,4.95,-6.0620016557794E-16));
#305=CARTESIAN_POINT('Origin',(352.5,-1.13028976576198E-29,0.));
#306=CARTESIAN_POINT('Origin',(340.,-1.13028976576198E-29,0.));
#307=CARTESIAN_POINT('',(327.5,4.95,-6.0620016557794E-16));
#308=CARTESIAN_POINT('Origin',(327.5,-1.13028976576198E-29,0.));
#309=CARTESIAN_POINT('',(340.,4.95,-6.0620016557794E-16));
#310=CARTESIAN_POINT('Origin',(327.5,-12.85,0.));
#311=CARTESIAN_POINT('',(327.5,12.85,-1.57367113690435E-15));
#312=CARTESIAN_POINT('Origin',(327.5,-1.13028976576198E-29,0.));
#313=CARTESIAN_POINT('Origin',(290.,-1.13028976576198E-29,0.));
#314=CARTESIAN_POINT('',(252.5,12.85,-1.57367113690435E-15));
#315=CARTESIAN_POINT('Origin',(252.5,-1.13028976576198E-29,0.));
#316=CARTESIAN_POINT('',(290.,12.85,-1.57367113690435E-15));
#317=CARTESIAN_POINT('Origin',(252.5,-18.,0.));
#318=CARTESIAN_POINT('',(252.5,18.,-2.20436423846524E-15));
#319=CARTESIAN_POINT('Origin',(252.5,-1.13028976576198E-29,0.));
#320=CARTESIAN_POINT('Origin',(217.5,-1.13028976576198E-29,0.));
#321=CARTESIAN_POINT('',(182.5,18.,-2.20436423846524E-15));
#322=CARTESIAN_POINT('Origin',(182.5,-1.13028976576198E-29,0.));
#323=CARTESIAN_POINT('',(217.5,18.,-2.20436423846524E-15));
#324=CARTESIAN_POINT('Origin',(182.5,-20.,0.));
#325=CARTESIAN_POINT('',(182.5,20.,-2.44929359829471E-15));
#326=CARTESIAN_POINT('Origin',(182.5,-1.13028976576198E-29,0.));
#327=CARTESIAN_POINT('Origin',(0.,-1.13028976576198E-29,0.));
#328=CARTESIAN_POINT('',(-182.5,20.,-2.44929359829471E-15));
#329=CARTESIAN_POINT('Origin',(-182.5,-1.13028976576198E-29,0.));
#330=CARTESIAN_POINT('',(0.,20.,-2.44929359829471E-15));
#331=CARTESIAN_POINT('Origin',(-182.5,-18.,0.));
#332=CARTESIAN_POINT('',(-182.5,18.,-2.20436423846524E-15));
#333=CARTESIAN_POINT('Origin',(-182.5,-1.13028976576198E-29,0.));
#334=CARTESIAN_POINT('Origin',(-217.5,-1.13028976576198E-29,0.));
#335=CARTESIAN_POINT('',(-252.5,18.,-2.20436423846524E-15));
#336=CARTESIAN_POINT('Origin',(-252.5,-1.13028976576198E-29,0.));
#337=CARTESIAN_POINT('',(-217.5,18.,-2.20436423846524E-15));
#338=CARTESIAN_POINT('Origin',(-252.5,-12.85,0.));
#339=CARTESIAN_POINT('',(-252.5,12.85,-1.57367113690435E-15));
#340=CARTESIAN_POINT('Origin',(-252.5,-1.13028976576198E-29,0.));
#341=CARTESIAN_POINT('Origin',(-290.,-1.13028976576198E-29,0.));
#342=CARTESIAN_POINT('',(-327.5,12.85,-1.57367113690435E-15));
#343=CARTESIAN_POINT('Origin',(-327.5,-1.13028976576198E-29,0.));
#344=CARTESIAN_POINT('',(-290.,12.85,-1.57367113690435E-15));
#345=CARTESIAN_POINT('Origin',(-327.5,-4.95,0.));
#346=CARTESIAN_POINT('',(-327.5,4.95,-6.0620016557794E-16));
#347=CARTESIAN_POINT('Origin',(-327.5,-1.13028976576198E-29,0.));
#348=CARTESIAN_POINT('Origin',(-340.,-1.13028976576198E-29,0.));
#349=CARTESIAN_POINT('',(-352.5,4.95,-6.0620016557794E-16));
#350=CARTESIAN_POINT('Origin',(-352.5,-1.13028976576198E-29,0.));
#351=CARTESIAN_POINT('',(-340.,4.95,-6.0620016557794E-16));
#352=CARTESIAN_POINT('Origin',(-352.5,8.62816615085482E-31,0.));
#353=UNCERTAINTY_MEASURE_WITH_UNIT(LENGTH_MEASURE(0.01),#357,
'DISTANCE_ACCURACY_VALUE',
'Maximum model space distance between geometric entities at asserted c
onnectivities');
#354=UNCERTAINTY_MEASURE_WITH_UNIT(LENGTH_MEASURE(0.01),#357,
'DISTANCE_ACCURACY_VALUE',
'Maximum model space distance between geometric entities at asserted c
onnectivities');
#355=(
GEOMETRIC_REPRESENTATION_CONTEXT(3)
GLOBAL_UNCERTAINTY_ASSIGNED_CONTEXT((#353))
GLOBAL_UNIT_ASSIGNED_CONTEXT((#357,#359,#360))
REPRESENTATION_CONTEXT('','3D')
);
#356=(
GEOMETRIC_REPRESENTATION_CONTEXT(3)
GLOBAL_UNCERTAINTY_ASSIGNED_CONTEXT((#354))
GLOBAL_UNIT_ASSIGNED_CONTEXT((#357,#359,#360))
REPRESENTATION_CONTEXT('','3D')
);
#357=(
LENGTH_UNIT()
NAMED_UNIT(*)
SI_UNIT(.MILLI.,.METRE.)
);
#358=(
LENGTH_UNIT()
NAMED_UNIT(*)
SI_UNIT($,.METRE.)
);
#359=(
NAMED_UNIT(*)
PLANE_ANGLE_UNIT()
SI_UNIT($,.RADIAN.)
);
#360=(
NAMED_UNIT(*)
SI_UNIT($,.STERADIAN.)
SOLID_ANGLE_UNIT()
);
#361=SHAPE_DEFINITION_REPRESENTATION(#362,#363);
#362=PRODUCT_DEFINITION_SHAPE('',$,#365);
#363=SHAPE_REPRESENTATION('',(#205),#355);
#364=PRODUCT_DEFINITION_CONTEXT('part definition',#369,'design');
#365=PRODUCT_DEFINITION('essieu_poubelle','essieu_poubelle v3',#366,#364);
#366=PRODUCT_DEFINITION_FORMATION('',$,#371);
#367=PRODUCT_RELATED_PRODUCT_CATEGORY('essieu_poubelle v3',
'essieu_poubelle v3',(#371));
#368=APPLICATION_PROTOCOL_DEFINITION('international standard',
'automotive_design',2009,#369);
#369=APPLICATION_CONTEXT(
'Core Data for Automotive Mechanical Design Process');
#370=PRODUCT_CONTEXT('part definition',#369,'mechanical');
#371=PRODUCT('essieu_poubelle','essieu_poubelle v3',$,(#370));
#372=PRESENTATION_STYLE_ASSIGNMENT((#373));
#373=SURFACE_STYLE_USAGE(.BOTH.,#374);
#374=SURFACE_SIDE_STYLE('',(#375));
#375=SURFACE_STYLE_FILL_AREA(#376);
#376=FILL_AREA_STYLE('Acier - Satin\X\E9',(#377));
#377=FILL_AREA_STYLE_COLOUR('Acier - Satin\X\E9',#378);
#378=COLOUR_RGB('Acier - Satin\X\E9',0.627450980392157,0.627450980392157,
0.627450980392157);
ENDSEC;
END-ISO-10303-21;
