ISO-10303-21;
HEADER;
/* Generated by software containing ST-Developer
 * from STEP Tools, Inc. (www.steptools.com) 
 */

FILE_DESCRIPTION(
/* description */ (''),
/* implementation_level */ '2;1');

FILE_NAME(
/* name */ 'C:/Users/Seb/Desktop/3D/Bague lunette barillet ERF v1.step',

/* time_stamp */ '2020-10-01T21:54:05+02:00',
/* author */ (''),
/* organization */ (''),
/* preprocessor_version */ 'ST-DEVELOPER v18.1',
/* originating_system */ 'Autodesk Translation Framework v9.3.0.1241',
/* authorisation */ '');

FILE_SCHEMA (('AUTOMOTIVE_DESIGN { 1 0 10303 214 3 1 1 }'));
ENDSEC;

DATA;
#10=MECHANICAL_DESIGN_GEOMETRIC_PRESENTATION_REPRESENTATION('',(#13),#170);
#11=SHAPE_REPRESENTATION_RELATIONSHIP('SRR','None',#177,#12);
#12=ADVANCED_BREP_SHAPE_REPRESENTATION('',(#14),#169);
#13=STYLED_ITEM('',(#186),#14);
#14=MANIFOLD_SOLID_BREP('Corps1',#90);
#15=LINE('',#162,#18);
#16=LINE('',#164,#19);
#17=LINE('',#166,#20);
#18=VECTOR('',#138,62.5);
#19=VECTOR('',#141,58.5);
#20=VECTOR('',#144,60.5);
#21=CYLINDRICAL_SURFACE('',#113,62.5);
#22=CYLINDRICAL_SURFACE('',#114,58.5);
#23=CYLINDRICAL_SURFACE('',#115,60.5);
#24=FACE_BOUND('',#34,.T.);
#25=FACE_BOUND('',#36,.T.);
#26=FACE_BOUND('',#38,.T.);
#27=FACE_OUTER_BOUND('',#33,.T.);
#28=FACE_OUTER_BOUND('',#35,.T.);
#29=FACE_OUTER_BOUND('',#37,.T.);
#30=FACE_OUTER_BOUND('',#39,.T.);
#31=FACE_OUTER_BOUND('',#40,.T.);
#32=FACE_OUTER_BOUND('',#41,.T.);
#33=EDGE_LOOP('',(#63));
#34=EDGE_LOOP('',(#64));
#35=EDGE_LOOP('',(#65));
#36=EDGE_LOOP('',(#66));
#37=EDGE_LOOP('',(#67));
#38=EDGE_LOOP('',(#68));
#39=EDGE_LOOP('',(#69,#70,#71,#72));
#40=EDGE_LOOP('',(#73,#74,#75,#76));
#41=EDGE_LOOP('',(#77,#78,#79,#80));
#42=CIRCLE('',#105,62.5);
#43=CIRCLE('',#106,58.5);
#44=CIRCLE('',#108,60.5);
#45=CIRCLE('',#109,58.5);
#46=CIRCLE('',#111,62.5);
#47=CIRCLE('',#112,60.5);
#48=VERTEX_POINT('',#147);
#49=VERTEX_POINT('',#149);
#50=VERTEX_POINT('',#152);
#51=VERTEX_POINT('',#154);
#52=VERTEX_POINT('',#157);
#53=VERTEX_POINT('',#159);
#54=EDGE_CURVE('',#48,#48,#42,.T.);
#55=EDGE_CURVE('',#49,#49,#43,.T.);
#56=EDGE_CURVE('',#50,#50,#44,.T.);
#57=EDGE_CURVE('',#51,#51,#45,.T.);
#58=EDGE_CURVE('',#52,#52,#46,.T.);
#59=EDGE_CURVE('',#53,#53,#47,.T.);
#60=EDGE_CURVE('',#52,#48,#15,.T.);
#61=EDGE_CURVE('',#51,#49,#16,.T.);
#62=EDGE_CURVE('',#50,#53,#17,.T.);
#63=ORIENTED_EDGE('',*,*,#54,.T.);
#64=ORIENTED_EDGE('',*,*,#55,.T.);
#65=ORIENTED_EDGE('',*,*,#56,.F.);
#66=ORIENTED_EDGE('',*,*,#57,.F.);
#67=ORIENTED_EDGE('',*,*,#58,.T.);
#68=ORIENTED_EDGE('',*,*,#59,.F.);
#69=ORIENTED_EDGE('',*,*,#58,.F.);
#70=ORIENTED_EDGE('',*,*,#60,.T.);
#71=ORIENTED_EDGE('',*,*,#54,.F.);
#72=ORIENTED_EDGE('',*,*,#60,.F.);
#73=ORIENTED_EDGE('',*,*,#57,.T.);
#74=ORIENTED_EDGE('',*,*,#61,.T.);
#75=ORIENTED_EDGE('',*,*,#55,.F.);
#76=ORIENTED_EDGE('',*,*,#61,.F.);
#77=ORIENTED_EDGE('',*,*,#56,.T.);
#78=ORIENTED_EDGE('',*,*,#62,.T.);
#79=ORIENTED_EDGE('',*,*,#59,.T.);
#80=ORIENTED_EDGE('',*,*,#62,.F.);
#81=PLANE('',#104);
#82=PLANE('',#107);
#83=PLANE('',#110);
#84=ADVANCED_FACE('',(#27,#24),#81,.F.);
#85=ADVANCED_FACE('',(#28,#25),#82,.T.);
#86=ADVANCED_FACE('',(#29,#26),#83,.T.);
#87=ADVANCED_FACE('',(#30),#21,.T.);
#88=ADVANCED_FACE('',(#31),#22,.F.);
#89=ADVANCED_FACE('',(#32),#23,.T.);
#90=CLOSED_SHELL('',(#84,#85,#86,#87,#88,#89));
#91=DERIVED_UNIT_ELEMENT(#93,1.);
#92=DERIVED_UNIT_ELEMENT(#172,3.);
#93=(
MASS_UNIT()
NAMED_UNIT(*)
SI_UNIT(.KILO.,.GRAM.)
);
#94=DERIVED_UNIT((#91,#92));
#95=MEASURE_REPRESENTATION_ITEM('density measure',
POSITIVE_RATIO_MEASURE(7850.),#94);
#96=PROPERTY_DEFINITION_REPRESENTATION(#101,#98);
#97=PROPERTY_DEFINITION_REPRESENTATION(#102,#99);
#98=REPRESENTATION('material name',(#100),#169);
#99=REPRESENTATION('density',(#95),#169);
#100=DESCRIPTIVE_REPRESENTATION_ITEM('Acier','Acier');
#101=PROPERTY_DEFINITION('material property','material name',#179);
#102=PROPERTY_DEFINITION('material property','density of part',#179);
#103=AXIS2_PLACEMENT_3D('placement',#145,#116,#117);
#104=AXIS2_PLACEMENT_3D('',#146,#118,#119);
#105=AXIS2_PLACEMENT_3D('',#148,#120,#121);
#106=AXIS2_PLACEMENT_3D('',#150,#122,#123);
#107=AXIS2_PLACEMENT_3D('',#151,#124,#125);
#108=AXIS2_PLACEMENT_3D('',#153,#126,#127);
#109=AXIS2_PLACEMENT_3D('',#155,#128,#129);
#110=AXIS2_PLACEMENT_3D('',#156,#130,#131);
#111=AXIS2_PLACEMENT_3D('',#158,#132,#133);
#112=AXIS2_PLACEMENT_3D('',#160,#134,#135);
#113=AXIS2_PLACEMENT_3D('',#161,#136,#137);
#114=AXIS2_PLACEMENT_3D('',#163,#139,#140);
#115=AXIS2_PLACEMENT_3D('',#165,#142,#143);
#116=DIRECTION('axis',(0.,0.,1.));
#117=DIRECTION('refdir',(1.,0.,0.));
#118=DIRECTION('center_axis',(0.,1.,0.));
#119=DIRECTION('ref_axis',(1.,0.,0.));
#120=DIRECTION('center_axis',(0.,-1.,0.));
#121=DIRECTION('ref_axis',(1.,0.,0.));
#122=DIRECTION('center_axis',(0.,1.,0.));
#123=DIRECTION('ref_axis',(1.,0.,0.));
#124=DIRECTION('center_axis',(0.,1.,0.));
#125=DIRECTION('ref_axis',(1.,0.,0.));
#126=DIRECTION('center_axis',(0.,-1.,0.));
#127=DIRECTION('ref_axis',(1.,0.,0.));
#128=DIRECTION('center_axis',(0.,1.,0.));
#129=DIRECTION('ref_axis',(1.,0.,0.));
#130=DIRECTION('center_axis',(0.,1.,0.));
#131=DIRECTION('ref_axis',(1.,0.,0.));
#132=DIRECTION('center_axis',(0.,1.,0.));
#133=DIRECTION('ref_axis',(1.,0.,0.));
#134=DIRECTION('center_axis',(0.,1.,0.));
#135=DIRECTION('ref_axis',(1.,0.,0.));
#136=DIRECTION('center_axis',(0.,1.,0.));
#137=DIRECTION('ref_axis',(1.,0.,0.));
#138=DIRECTION('',(0.,-1.,0.));
#139=DIRECTION('center_axis',(0.,1.,0.));
#140=DIRECTION('ref_axis',(1.,0.,0.));
#141=DIRECTION('',(0.,-1.,0.));
#142=DIRECTION('center_axis',(0.,1.,0.));
#143=DIRECTION('ref_axis',(1.,0.,0.));
#144=DIRECTION('',(0.,-1.,0.));
#145=CARTESIAN_POINT('',(0.,0.,0.));
#146=CARTESIAN_POINT('Origin',(0.,-4.,0.));
#147=CARTESIAN_POINT('',(-62.5,-4.,7.65404249467096E-15));
#148=CARTESIAN_POINT('Origin',(0.,-4.,0.));
#149=CARTESIAN_POINT('',(-58.5,-4.,-7.16418377501202E-15));
#150=CARTESIAN_POINT('Origin',(0.,-4.,0.));
#151=CARTESIAN_POINT('Origin',(0.,20.,0.));
#152=CARTESIAN_POINT('',(-60.5,20.,7.40911313484149E-15));
#153=CARTESIAN_POINT('Origin',(0.,20.,0.));
#154=CARTESIAN_POINT('',(-58.5,20.,7.16418377501202E-15));
#155=CARTESIAN_POINT('Origin',(0.,20.,0.));
#156=CARTESIAN_POINT('Origin',(0.,10.,0.));
#157=CARTESIAN_POINT('',(-62.5,10.,7.65404249467096E-15));
#158=CARTESIAN_POINT('Origin',(0.,10.,0.));
#159=CARTESIAN_POINT('',(-60.5,10.,7.40911313484149E-15));
#160=CARTESIAN_POINT('Origin',(0.,10.,0.));
#161=CARTESIAN_POINT('Origin',(0.,0.,0.));
#162=CARTESIAN_POINT('',(-62.5,0.,7.65404249467096E-15));
#163=CARTESIAN_POINT('Origin',(0.,0.,0.));
#164=CARTESIAN_POINT('',(-58.5,0.,7.16418377501202E-15));
#165=CARTESIAN_POINT('Origin',(0.,0.,0.));
#166=CARTESIAN_POINT('',(-60.5,0.,7.40911313484149E-15));
#167=UNCERTAINTY_MEASURE_WITH_UNIT(LENGTH_MEASURE(0.01),#171,
'DISTANCE_ACCURACY_VALUE',
'Maximum model space distance between geometric entities at asserted c
onnectivities');
#168=UNCERTAINTY_MEASURE_WITH_UNIT(LENGTH_MEASURE(0.01),#171,
'DISTANCE_ACCURACY_VALUE',
'Maximum model space distance between geometric entities at asserted c
onnectivities');
#169=(
GEOMETRIC_REPRESENTATION_CONTEXT(3)
GLOBAL_UNCERTAINTY_ASSIGNED_CONTEXT((#167))
GLOBAL_UNIT_ASSIGNED_CONTEXT((#171,#173,#174))
REPRESENTATION_CONTEXT('','3D')
);
#170=(
GEOMETRIC_REPRESENTATION_CONTEXT(3)
GLOBAL_UNCERTAINTY_ASSIGNED_CONTEXT((#168))
GLOBAL_UNIT_ASSIGNED_CONTEXT((#171,#173,#174))
REPRESENTATION_CONTEXT('','3D')
);
#171=(
LENGTH_UNIT()
NAMED_UNIT(*)
SI_UNIT(.MILLI.,.METRE.)
);
#172=(
LENGTH_UNIT()
NAMED_UNIT(*)
SI_UNIT($,.METRE.)
);
#173=(
NAMED_UNIT(*)
PLANE_ANGLE_UNIT()
SI_UNIT($,.RADIAN.)
);
#174=(
NAMED_UNIT(*)
SI_UNIT($,.STERADIAN.)
SOLID_ANGLE_UNIT()
);
#175=SHAPE_DEFINITION_REPRESENTATION(#176,#177);
#176=PRODUCT_DEFINITION_SHAPE('',$,#179);
#177=SHAPE_REPRESENTATION('',(#103),#169);
#178=PRODUCT_DEFINITION_CONTEXT('part definition',#183,'design');
#179=PRODUCT_DEFINITION('Bague lunette barillet ERF',
'Bague lunette barillet ERF v0',#180,#178);
#180=PRODUCT_DEFINITION_FORMATION('',$,#185);
#181=PRODUCT_RELATED_PRODUCT_CATEGORY('Bague lunette barillet ERF v0',
'Bague lunette barillet ERF v0',(#185));
#182=APPLICATION_PROTOCOL_DEFINITION('international standard',
'automotive_design',2009,#183);
#183=APPLICATION_CONTEXT(
'Core Data for Automotive Mechanical Design Process');
#184=PRODUCT_CONTEXT('part definition',#183,'mechanical');
#185=PRODUCT('Bague lunette barillet ERF',
'Bague lunette barillet ERF v0',$,(#184));
#186=PRESENTATION_STYLE_ASSIGNMENT((#187));
#187=SURFACE_STYLE_USAGE(.BOTH.,#188);
#188=SURFACE_SIDE_STYLE('',(#189));
#189=SURFACE_STYLE_FILL_AREA(#190);
#190=FILL_AREA_STYLE('Acier - Satin\X\E9',(#191));
#191=FILL_AREA_STYLE_COLOUR('Acier - Satin\X\E9',#192);
#192=COLOUR_RGB('Acier - Satin\X\E9',0.627450980392157,0.627450980392157,
0.627450980392157);
ENDSEC;
END-ISO-10303-21;
