ISO-10303-21;
HEADER;
/* Generated by software containing ST-Developer
 * from STEP Tools, Inc. (www.steptools.com) 
 */

FILE_DESCRIPTION(
/* description */ (''),
/* implementation_level */ '2;1');

FILE_NAME(
/* name */ 
'C:/Users/ced0w/OneDrive/Documents/Saint-Luc/DI 5eme/Stage/Wireless/Co
mmandes/SLEEVE EXT..step',
/* time_stamp */ '2020-10-12T11:40:48+02:00',
/* author */ (''),
/* organization */ (''),
/* preprocessor_version */ 'ST-DEVELOPER v18.1',
/* originating_system */ 'Autodesk Translation Framework v9.3.0.1241',
/* authorisation */ '');

FILE_SCHEMA (('AUTOMOTIVE_DESIGN { 1 0 10303 214 3 1 1 }'));
ENDSEC;

DATA;
#10=MECHANICAL_DESIGN_GEOMETRIC_PRESENTATION_REPRESENTATION('',(#13),#113);
#11=SHAPE_REPRESENTATION_RELATIONSHIP('SRR','None',#119,#12);
#12=ADVANCED_BREP_SHAPE_REPRESENTATION('',(#14),#112);
#13=STYLED_ITEM('',(#131),#14);
#14=MANIFOLD_SOLID_BREP('SLEEVE',#65);
#15=FACE_BOUND('',#25,.T.);
#16=FACE_BOUND('',#28,.T.);
#17=PLANE('',#70);
#18=PLANE('',#74);
#19=FACE_OUTER_BOUND('',#23,.T.);
#20=FACE_OUTER_BOUND('',#24,.T.);
#21=FACE_OUTER_BOUND('',#26,.T.);
#22=FACE_OUTER_BOUND('',#27,.T.);
#23=EDGE_LOOP('',(#47,#48,#49,#50));
#24=EDGE_LOOP('',(#51));
#25=EDGE_LOOP('',(#52));
#26=EDGE_LOOP('',(#53,#54,#55,#56));
#27=EDGE_LOOP('',(#57));
#28=EDGE_LOOP('',(#58));
#29=LINE('',#100,#31);
#30=LINE('',#108,#32);
#31=VECTOR('',#81,9.325);
#32=VECTOR('',#92,10.125);
#33=CIRCLE('',#68,9.325);
#34=CIRCLE('',#69,9.325);
#35=CIRCLE('',#71,10.125);
#36=CIRCLE('',#73,10.125);
#37=VERTEX_POINT('',#97);
#38=VERTEX_POINT('',#99);
#39=VERTEX_POINT('',#103);
#40=VERTEX_POINT('',#106);
#41=EDGE_CURVE('',#37,#37,#33,.T.);
#42=EDGE_CURVE('',#37,#38,#29,.T.);
#43=EDGE_CURVE('',#38,#38,#34,.T.);
#44=EDGE_CURVE('',#39,#39,#35,.T.);
#45=EDGE_CURVE('',#40,#40,#36,.T.);
#46=EDGE_CURVE('',#40,#39,#30,.T.);
#47=ORIENTED_EDGE('',*,*,#41,.T.);
#48=ORIENTED_EDGE('',*,*,#42,.T.);
#49=ORIENTED_EDGE('',*,*,#43,.F.);
#50=ORIENTED_EDGE('',*,*,#42,.F.);
#51=ORIENTED_EDGE('',*,*,#44,.F.);
#52=ORIENTED_EDGE('',*,*,#43,.T.);
#53=ORIENTED_EDGE('',*,*,#45,.F.);
#54=ORIENTED_EDGE('',*,*,#46,.T.);
#55=ORIENTED_EDGE('',*,*,#44,.T.);
#56=ORIENTED_EDGE('',*,*,#46,.F.);
#57=ORIENTED_EDGE('',*,*,#45,.T.);
#58=ORIENTED_EDGE('',*,*,#41,.F.);
#59=CYLINDRICAL_SURFACE('',#67,9.325);
#60=CYLINDRICAL_SURFACE('',#72,10.125);
#61=ADVANCED_FACE('',(#19),#59,.F.);
#62=ADVANCED_FACE('',(#20,#15),#17,.T.);
#63=ADVANCED_FACE('',(#21),#60,.T.);
#64=ADVANCED_FACE('',(#22,#16),#18,.T.);
#65=CLOSED_SHELL('',(#61,#62,#63,#64));
#66=AXIS2_PLACEMENT_3D('placement',#95,#75,#76);
#67=AXIS2_PLACEMENT_3D('',#96,#77,#78);
#68=AXIS2_PLACEMENT_3D('',#98,#79,#80);
#69=AXIS2_PLACEMENT_3D('',#101,#82,#83);
#70=AXIS2_PLACEMENT_3D('',#102,#84,#85);
#71=AXIS2_PLACEMENT_3D('',#104,#86,#87);
#72=AXIS2_PLACEMENT_3D('',#105,#88,#89);
#73=AXIS2_PLACEMENT_3D('',#107,#90,#91);
#74=AXIS2_PLACEMENT_3D('',#109,#93,#94);
#75=DIRECTION('axis',(0.,0.,1.));
#76=DIRECTION('refdir',(1.,0.,0.));
#77=DIRECTION('center_axis',(1.,-4.04799362669526E-34,3.30543764088848E-18));
#78=DIRECTION('ref_axis',(0.,1.,8.52998894692259E-17));
#79=DIRECTION('center_axis',(1.,-4.04799362669526E-34,3.30543764088848E-18));
#80=DIRECTION('ref_axis',(3.30543764088848E-18,0.,-1.));
#81=DIRECTION('',(-1.,4.04799362669526E-34,-3.30543764088848E-18));
#82=DIRECTION('center_axis',(1.,-4.04799362669526E-34,3.30543764088848E-18));
#83=DIRECTION('ref_axis',(3.30543764088848E-18,0.,-1.));
#84=DIRECTION('center_axis',(-1.,4.04799362669526E-34,-3.30543764088848E-18));
#85=DIRECTION('ref_axis',(-3.30543764088848E-18,0.,1.));
#86=DIRECTION('center_axis',(1.,-4.04799362669526E-34,3.30543764088848E-18));
#87=DIRECTION('ref_axis',(3.30543764088848E-18,0.,-1.));
#88=DIRECTION('center_axis',(1.,-4.04799362669526E-34,3.30543764088848E-18));
#89=DIRECTION('ref_axis',(0.,1.,8.52998894692259E-17));
#90=DIRECTION('center_axis',(1.,-4.04799362669526E-34,3.30543764088848E-18));
#91=DIRECTION('ref_axis',(3.30543764088848E-18,0.,-1.));
#92=DIRECTION('',(-1.,4.04799362669526E-34,-3.30543764088848E-18));
#93=DIRECTION('center_axis',(1.,-4.04799362669526E-34,3.30543764088848E-18));
#94=DIRECTION('ref_axis',(3.30543764088848E-18,0.,-1.));
#95=CARTESIAN_POINT('',(0.,0.,0.));
#96=CARTESIAN_POINT('Origin',(57.8399999999999,4.72966765094411E-32,-3.86206672343168E-16));
#97=CARTESIAN_POINT('',(114.74,-9.325,-2.13553188008205E-15));
#98=CARTESIAN_POINT('Origin',(114.74,2.42635927735451E-32,-1.98127270576613E-16));
#99=CARTESIAN_POINT('',(0.939999999999888,-9.325,-2.51169068361516E-15));
#100=CARTESIAN_POINT('',(57.8399999999999,-9.325,-2.32361128184861E-15));
#101=CARTESIAN_POINT('Origin',(0.939999999999888,7.03297602453371E-32,-5.74286074109722E-16));
#102=CARTESIAN_POINT('Origin',(0.939999999999883,10.125,1.23995488413669E-15));
#103=CARTESIAN_POINT('',(0.939999999999888,-10.125,-2.67790233912233E-15));
#104=CARTESIAN_POINT('Origin',(0.939999999999888,7.03297602453371E-32,-5.74286074109722E-16));
#105=CARTESIAN_POINT('Origin',(57.8399999999999,4.72966765094411E-32,-3.86206672343168E-16));
#106=CARTESIAN_POINT('',(114.74,-10.125,-2.30174353558922E-15));
#107=CARTESIAN_POINT('Origin',(114.74,2.42635927735451E-32,-1.98127270576613E-16));
#108=CARTESIAN_POINT('',(57.8399999999999,-10.125,-2.48982293735578E-15));
#109=CARTESIAN_POINT('Origin',(114.74,9.325,8.55145444510539E-16));
#110=UNCERTAINTY_MEASURE_WITH_UNIT(LENGTH_MEASURE(0.01),#114,
'DISTANCE_ACCURACY_VALUE',
'Maximum model space distance between geometric entities at asserted c
onnectivities');
#111=UNCERTAINTY_MEASURE_WITH_UNIT(LENGTH_MEASURE(0.01),#114,
'DISTANCE_ACCURACY_VALUE',
'Maximum model space distance between geometric entities at asserted c
onnectivities');
#112=(
GEOMETRIC_REPRESENTATION_CONTEXT(3)
GLOBAL_UNCERTAINTY_ASSIGNED_CONTEXT((#110))
GLOBAL_UNIT_ASSIGNED_CONTEXT((#114,#115,#116))
REPRESENTATION_CONTEXT('','3D')
);
#113=(
GEOMETRIC_REPRESENTATION_CONTEXT(3)
GLOBAL_UNCERTAINTY_ASSIGNED_CONTEXT((#111))
GLOBAL_UNIT_ASSIGNED_CONTEXT((#114,#115,#116))
REPRESENTATION_CONTEXT('','3D')
);
#114=(
LENGTH_UNIT()
NAMED_UNIT(*)
SI_UNIT(.MILLI.,.METRE.)
);
#115=(
NAMED_UNIT(*)
PLANE_ANGLE_UNIT()
SI_UNIT($,.RADIAN.)
);
#116=(
NAMED_UNIT(*)
SI_UNIT($,.STERADIAN.)
SOLID_ANGLE_UNIT()
);
#117=SHAPE_DEFINITION_REPRESENTATION(#118,#119);
#118=PRODUCT_DEFINITION_SHAPE('',$,#121);
#119=SHAPE_REPRESENTATION('',(#66),#112);
#120=PRODUCT_DEFINITION_CONTEXT('part definition',#125,'design');
#121=PRODUCT_DEFINITION('Pi\X\E8ce \X\E0 main V15',
'Pi\X\E8ce \X\E0 main V15 v12',#122,#120);
#122=PRODUCT_DEFINITION_FORMATION('',$,#127);
#123=PRODUCT_RELATED_PRODUCT_CATEGORY('Pi\X\E8ce \X\E0 main V15 v12',
'Pi\X\E8ce \X\E0 main V15 v12',(#127));
#124=APPLICATION_PROTOCOL_DEFINITION('international standard',
'automotive_design',2009,#125);
#125=APPLICATION_CONTEXT(
'Core Data for Automotive Mechanical Design Process');
#126=PRODUCT_CONTEXT('part definition',#125,'mechanical');
#127=PRODUCT('Pi\X\E8ce \X\E0 main V15','Pi\X\E8ce \X\E0 main V15 v12',
$,(#126));
#128=PRESENTATION_STYLE_ASSIGNMENT((#141));
#129=PRESENTATION_STYLE_ASSIGNMENT((#142));
#130=PRESENTATION_STYLE_ASSIGNMENT((#143));
#131=PRESENTATION_STYLE_ASSIGNMENT((#144));
#132=PRESENTATION_STYLE_ASSIGNMENT((#145));
#133=PRESENTATION_STYLE_ASSIGNMENT((#146));
#134=PRESENTATION_STYLE_ASSIGNMENT((#147));
#135=PRESENTATION_STYLE_ASSIGNMENT((#148));
#136=PRESENTATION_STYLE_ASSIGNMENT((#149));
#137=PRESENTATION_STYLE_ASSIGNMENT((#150));
#138=PRESENTATION_STYLE_ASSIGNMENT((#151));
#139=PRESENTATION_STYLE_ASSIGNMENT((#152));
#140=PRESENTATION_STYLE_ASSIGNMENT((#153));
#141=SURFACE_STYLE_USAGE(.BOTH.,#154);
#142=SURFACE_STYLE_USAGE(.BOTH.,#155);
#143=SURFACE_STYLE_USAGE(.BOTH.,#156);
#144=SURFACE_STYLE_USAGE(.BOTH.,#157);
#145=SURFACE_STYLE_USAGE(.BOTH.,#158);
#146=SURFACE_STYLE_USAGE(.BOTH.,#159);
#147=SURFACE_STYLE_USAGE(.BOTH.,#160);
#148=SURFACE_STYLE_USAGE(.BOTH.,#161);
#149=SURFACE_STYLE_USAGE(.BOTH.,#162);
#150=SURFACE_STYLE_USAGE(.BOTH.,#163);
#151=SURFACE_STYLE_USAGE(.BOTH.,#164);
#152=SURFACE_STYLE_USAGE(.BOTH.,#165);
#153=SURFACE_STYLE_USAGE(.BOTH.,#166);
#154=SURFACE_SIDE_STYLE('',(#167));
#155=SURFACE_SIDE_STYLE('',(#168));
#156=SURFACE_SIDE_STYLE('',(#169));
#157=SURFACE_SIDE_STYLE('',(#170));
#158=SURFACE_SIDE_STYLE('',(#171));
#159=SURFACE_SIDE_STYLE('',(#172));
#160=SURFACE_SIDE_STYLE('',(#173));
#161=SURFACE_SIDE_STYLE('',(#174));
#162=SURFACE_SIDE_STYLE('',(#175));
#163=SURFACE_SIDE_STYLE('',(#176));
#164=SURFACE_SIDE_STYLE('',(#177));
#165=SURFACE_SIDE_STYLE('',(#178));
#166=SURFACE_SIDE_STYLE('',(#179));
#167=SURFACE_STYLE_FILL_AREA(#180);
#168=SURFACE_STYLE_FILL_AREA(#181);
#169=SURFACE_STYLE_FILL_AREA(#182);
#170=SURFACE_STYLE_FILL_AREA(#183);
#171=SURFACE_STYLE_FILL_AREA(#184);
#172=SURFACE_STYLE_FILL_AREA(#185);
#173=SURFACE_STYLE_FILL_AREA(#186);
#174=SURFACE_STYLE_FILL_AREA(#187);
#175=SURFACE_STYLE_FILL_AREA(#188);
#176=SURFACE_STYLE_FILL_AREA(#189);
#177=SURFACE_STYLE_FILL_AREA(#190);
#178=SURFACE_STYLE_FILL_AREA(#191);
#179=SURFACE_STYLE_FILL_AREA(#192);
#180=FILL_AREA_STYLE('Acier - Satin\X\E9',(#193));
#181=FILL_AREA_STYLE('Gold - Polished (1) (2) (1)',(#194));
#182=FILL_AREA_STYLE('Plastique - Brillant (bleu) (1)',(#195));
#183=FILL_AREA_STYLE('Gold - Polished (1) (1)',(#196));
#184=FILL_AREA_STYLE('Silicone (blanc)',(#197));
#185=FILL_AREA_STYLE('Gold - Polished (1) (1)',(#198));
#186=FILL_AREA_STYLE('Plastique - Brillant (bleu)',(#199));
#187=FILL_AREA_STYLE('Acier inoxydable - Satin\X\E9',(#200));
#188=FILL_AREA_STYLE('Cuivre - Brut',(#201));
#189=FILL_AREA_STYLE('Peinture - Brillant \X\E9maill\X\E9 (vert)',(#202));
#190=FILL_AREA_STYLE('Opaque(8,8,8)',(#203));
#191=FILL_AREA_STYLE('Caoutchouc - Souple (1)',(#204));
#192=FILL_AREA_STYLE('Caoutchouc - Souple',(#205));
#193=FILL_AREA_STYLE_COLOUR('Acier - Satin\X\E9',#206);
#194=FILL_AREA_STYLE_COLOUR('Gold - Polished (1) (2) (1)',#207);
#195=FILL_AREA_STYLE_COLOUR('Plastique - Brillant (bleu) (1)',#208);
#196=FILL_AREA_STYLE_COLOUR('Gold - Polished (1) (1)',#209);
#197=FILL_AREA_STYLE_COLOUR('Silicone (blanc)',#210);
#198=FILL_AREA_STYLE_COLOUR('Gold - Polished (1) (1)',#211);
#199=FILL_AREA_STYLE_COLOUR('Plastique - Brillant (bleu)',#212);
#200=FILL_AREA_STYLE_COLOUR('Acier inoxydable - Satin\X\E9',#213);
#201=FILL_AREA_STYLE_COLOUR('Cuivre - Brut',#214);
#202=FILL_AREA_STYLE_COLOUR('Peinture - Brillant \X\E9maill\X\E9 (vert
)',#215);
#203=FILL_AREA_STYLE_COLOUR('Opaque(8,8,8)',#216);
#204=FILL_AREA_STYLE_COLOUR('Caoutchouc - Souple (1)',#217);
#205=FILL_AREA_STYLE_COLOUR('Caoutchouc - Souple',#218);
#206=COLOUR_RGB('Acier - Satin\X\E9',0.627450980392157,0.627450980392157,
0.627450980392157);
#207=COLOUR_RGB('Gold - Polished (1) (2) (1)',0.984313725490196,1.,0.0431372549019608);
#208=COLOUR_RGB('Plastique - Brillant (bleu) (1)',0.,0.568627450980392,
1.);
#209=COLOUR_RGB('Gold - Polished (1) (1)',0.243137254901961,0.784313725490196,
0.109803921568627);
#210=COLOUR_RGB('Silicone (blanc)',0.964705882352941,0.964705882352941,
0.952941176470588);
#211=COLOUR_RGB('Gold - Polished (1) (1)',0.635294117647059,1.,0.545098039215686);
#212=COLOUR_RGB('Plastique - Brillant (bleu)',0.,1.,1.);
#213=COLOUR_RGB('Acier inoxydable - Satin\X\E9',0.796078431372549,0.796078431372549,
0.796078431372549);
#214=COLOUR_RGB('Cuivre - Brut',0.,0.,0.);
#215=COLOUR_RGB('Peinture - Brillant \X\E9maill\X\E9 (vert)',0.266666666666667,
0.588235294117647,0.282352941176471);
#216=COLOUR_RGB('Opaque(8,8,8)',0.0313725490196078,0.0313725490196078,0.0313725490196078);
#217=COLOUR_RGB('Caoutchouc - Souple (1)',1.,0.,0.);
#218=COLOUR_RGB('Caoutchouc - Souple',0.152941176470588,0.152941176470588,
0.152941176470588);
ENDSEC;
END-ISO-10303-21;
