ISO-10303-21;
HEADER;
/* Generated by software containing ST-Developer
 * from STEP Tools, Inc. (www.steptools.com) 
 */

FILE_DESCRIPTION(
/* description */ (''),
/* implementation_level */ '2;1');

FILE_NAME(
/* name */ 
'C:/Users/ced0w/OneDrive/Documents/Saint-Luc/DI 5eme/Stage/Incisionneu
r/Commande/CLAMP TUBE.step',
/* time_stamp */ '2020-10-12T15:12:41+02:00',
/* author */ (''),
/* organization */ (''),
/* preprocessor_version */ 'ST-DEVELOPER v18.1',
/* originating_system */ 'Autodesk Translation Framework v9.3.0.1241',
/* authorisation */ '');

FILE_SCHEMA (('AUTOMOTIVE_DESIGN { 1 0 10303 214 3 1 1 }'));
ENDSEC;

DATA;
#10=MECHANICAL_DESIGN_GEOMETRIC_PRESENTATION_REPRESENTATION('',(#13),#150);
#11=SHAPE_REPRESENTATION_RELATIONSHIP('SRR','None',#157,#12);
#12=ADVANCED_BREP_SHAPE_REPRESENTATION('',(#14),#149);
#13=STYLED_ITEM('',(#178),#14);
#14=MANIFOLD_SOLID_BREP('Clamp tube',#79);
#15=FACE_BOUND('',#29,.T.);
#16=FACE_BOUND('',#32,.T.);
#17=PLANE('',#98);
#18=PLANE('',#102);
#19=CYLINDRICAL_SURFACE('',#96,1.60000000000001);
#20=CYLINDRICAL_SURFACE('',#100,2.60000000000001);
#21=FACE_OUTER_BOUND('',#26,.T.);
#22=FACE_OUTER_BOUND('',#27,.T.);
#23=FACE_OUTER_BOUND('',#28,.T.);
#24=FACE_OUTER_BOUND('',#30,.T.);
#25=FACE_OUTER_BOUND('',#31,.T.);
#26=EDGE_LOOP('',(#57,#58,#59,#60));
#27=EDGE_LOOP('',(#61,#62,#63,#64));
#28=EDGE_LOOP('',(#65));
#29=EDGE_LOOP('',(#66));
#30=EDGE_LOOP('',(#67,#68,#69,#70));
#31=EDGE_LOOP('',(#71));
#32=EDGE_LOOP('',(#72));
#33=LINE('',#133,#36);
#34=LINE('',#137,#37);
#35=LINE('',#145,#38);
#36=VECTOR('',#109,1.9250000174623);
#37=VECTOR('',#114,1.60000000000001);
#38=VECTOR('',#125,2.60000000000001);
#39=CIRCLE('',#94,2.2500000349246);
#40=CIRCLE('',#95,1.60000000000001);
#41=CIRCLE('',#97,1.60000000000001);
#42=CIRCLE('',#99,2.60000000000001);
#43=CIRCLE('',#101,2.6);
#44=VERTEX_POINT('',#130);
#45=VERTEX_POINT('',#132);
#46=VERTEX_POINT('',#136);
#47=VERTEX_POINT('',#140);
#48=VERTEX_POINT('',#143);
#49=EDGE_CURVE('',#44,#44,#39,.T.);
#50=EDGE_CURVE('',#44,#45,#33,.T.);
#51=EDGE_CURVE('',#45,#45,#40,.T.);
#52=EDGE_CURVE('',#45,#46,#34,.T.);
#53=EDGE_CURVE('',#46,#46,#41,.T.);
#54=EDGE_CURVE('',#47,#47,#42,.T.);
#55=EDGE_CURVE('',#48,#48,#43,.T.);
#56=EDGE_CURVE('',#48,#47,#35,.T.);
#57=ORIENTED_EDGE('',*,*,#49,.T.);
#58=ORIENTED_EDGE('',*,*,#50,.T.);
#59=ORIENTED_EDGE('',*,*,#51,.F.);
#60=ORIENTED_EDGE('',*,*,#50,.F.);
#61=ORIENTED_EDGE('',*,*,#51,.T.);
#62=ORIENTED_EDGE('',*,*,#52,.T.);
#63=ORIENTED_EDGE('',*,*,#53,.F.);
#64=ORIENTED_EDGE('',*,*,#52,.F.);
#65=ORIENTED_EDGE('',*,*,#54,.F.);
#66=ORIENTED_EDGE('',*,*,#53,.T.);
#67=ORIENTED_EDGE('',*,*,#55,.F.);
#68=ORIENTED_EDGE('',*,*,#56,.T.);
#69=ORIENTED_EDGE('',*,*,#54,.T.);
#70=ORIENTED_EDGE('',*,*,#56,.F.);
#71=ORIENTED_EDGE('',*,*,#55,.T.);
#72=ORIENTED_EDGE('',*,*,#49,.F.);
#73=CONICAL_SURFACE('',#93,1.9250000174623,0.463647553121454);
#74=ADVANCED_FACE('',(#21),#73,.F.);
#75=ADVANCED_FACE('',(#22),#19,.F.);
#76=ADVANCED_FACE('',(#23,#15),#17,.T.);
#77=ADVANCED_FACE('',(#24),#20,.T.);
#78=ADVANCED_FACE('',(#25,#16),#18,.T.);
#79=CLOSED_SHELL('',(#74,#75,#76,#77,#78));
#80=DERIVED_UNIT_ELEMENT(#82,1.);
#81=DERIVED_UNIT_ELEMENT(#152,3.);
#82=(
MASS_UNIT()
NAMED_UNIT(*)
SI_UNIT(.KILO.,.GRAM.)
);
#83=DERIVED_UNIT((#80,#81));
#84=MEASURE_REPRESENTATION_ITEM('density measure',
POSITIVE_RATIO_MEASURE(7850.),#83);
#85=PROPERTY_DEFINITION_REPRESENTATION(#90,#87);
#86=PROPERTY_DEFINITION_REPRESENTATION(#91,#88);
#87=REPRESENTATION('material name',(#89),#149);
#88=REPRESENTATION('density',(#84),#149);
#89=DESCRIPTIVE_REPRESENTATION_ITEM('Acier','Acier');
#90=PROPERTY_DEFINITION('material property','material name',#159);
#91=PROPERTY_DEFINITION('material property','density of part',#159);
#92=AXIS2_PLACEMENT_3D('placement',#128,#103,#104);
#93=AXIS2_PLACEMENT_3D('',#129,#105,#106);
#94=AXIS2_PLACEMENT_3D('',#131,#107,#108);
#95=AXIS2_PLACEMENT_3D('',#134,#110,#111);
#96=AXIS2_PLACEMENT_3D('',#135,#112,#113);
#97=AXIS2_PLACEMENT_3D('',#138,#115,#116);
#98=AXIS2_PLACEMENT_3D('',#139,#117,#118);
#99=AXIS2_PLACEMENT_3D('',#141,#119,#120);
#100=AXIS2_PLACEMENT_3D('',#142,#121,#122);
#101=AXIS2_PLACEMENT_3D('',#144,#123,#124);
#102=AXIS2_PLACEMENT_3D('',#146,#126,#127);
#103=DIRECTION('axis',(0.,0.,1.));
#104=DIRECTION('refdir',(1.,0.,0.));
#105=DIRECTION('center_axis',(-1.,0.,-2.11471052309553E-15));
#106=DIRECTION('ref_axis',(-2.13769299996496E-15,0.,1.));
#107=DIRECTION('center_axis',(-1.,0.,-2.11471052309553E-15));
#108=DIRECTION('ref_axis',(-2.11471052309553E-15,0.,1.));
#109=DIRECTION('',(0.894427215989919,5.4767863705634E-17,0.447213545519947));
#110=DIRECTION('center_axis',(-1.,0.,-2.11471052309553E-15));
#111=DIRECTION('ref_axis',(-2.11471052309553E-15,0.,1.));
#112=DIRECTION('center_axis',(-1.,0.,-2.11471052309553E-15));
#113=DIRECTION('ref_axis',(-2.13769299996496E-15,0.,1.));
#114=DIRECTION('',(1.,0.,2.11471052309553E-15));
#115=DIRECTION('center_axis',(-1.,0.,-2.11471052309553E-15));
#116=DIRECTION('ref_axis',(-2.11471052309553E-15,0.,1.));
#117=DIRECTION('center_axis',(1.,0.,2.11471052309553E-15));
#118=DIRECTION('ref_axis',(2.11471052309553E-15,0.,-1.));
#119=DIRECTION('center_axis',(-1.,0.,-2.11471052309553E-15));
#120=DIRECTION('ref_axis',(-2.11471052309553E-15,0.,1.));
#121=DIRECTION('center_axis',(-1.,0.,-2.11471052309553E-15));
#122=DIRECTION('ref_axis',(-2.13769299996496E-15,0.,1.));
#123=DIRECTION('center_axis',(-1.,0.,-2.11471052309553E-15));
#124=DIRECTION('ref_axis',(-2.11471052309553E-15,0.,1.));
#125=DIRECTION('',(1.,0.,2.11471052309553E-15));
#126=DIRECTION('center_axis',(-1.,0.,-2.11471052309553E-15));
#127=DIRECTION('ref_axis',(-2.11471052309553E-15,0.,1.));
#128=CARTESIAN_POINT('',(0.,0.,0.));
#129=CARTESIAN_POINT('Origin',(-20.0499998593703,0.,2.39615314759559E-14));
#130=CARTESIAN_POINT('',(-20.6999999850988,-2.75545534085184E-16,-2.25000003492457));
#131=CARTESIAN_POINT('Origin',(-20.6999999850988,0.,2.25869693700644E-14));
#132=CARTESIAN_POINT('',(-19.3999997336417,-1.95943487863578E-16,-1.59999999999998));
#133=CARTESIAN_POINT('',(-20.0499998593703,-2.35744510974381E-16,-1.92500001746228));
#134=CARTESIAN_POINT('Origin',(-19.3999997336418,0.,2.53360935818475E-14));
#135=CARTESIAN_POINT('Origin',(-18.0235267253355,0.,2.82469355372698E-14));
#136=CARTESIAN_POINT('',(-16.6470537170292,-1.95943487863578E-16,-1.59999999999998));
#137=CARTESIAN_POINT('',(-18.0235267253355,-1.95943487863578E-16,-1.59999999999998));
#138=CARTESIAN_POINT('Origin',(-16.6470537170292,0.,3.1157777492692E-14));
#139=CARTESIAN_POINT('Origin',(-16.6470537236054,0.,2.60000000000004));
#140=CARTESIAN_POINT('',(-16.6470537236053,-3.18408167778313E-16,-2.59999999999998));
#141=CARTESIAN_POINT('Origin',(-16.6470537236054,0.,3.11577774787853E-14));
#142=CARTESIAN_POINT('Origin',(-18.6735268543521,0.,2.68723734244248E-14));
#143=CARTESIAN_POINT('',(-20.6999999850988,-3.18408167778313E-16,-2.59999999999998));
#144=CARTESIAN_POINT('Origin',(-20.6999999850988,0.,2.25869693700644E-14));
#145=CARTESIAN_POINT('',(-18.6735268543521,-3.18408167778313E-16,-2.59999999999998));
#146=CARTESIAN_POINT('Origin',(-20.6999999850989,0.,2.25000003492462));
#147=UNCERTAINTY_MEASURE_WITH_UNIT(LENGTH_MEASURE(0.01),#151,
'DISTANCE_ACCURACY_VALUE',
'Maximum model space distance between geometric entities at asserted c
onnectivities');
#148=UNCERTAINTY_MEASURE_WITH_UNIT(LENGTH_MEASURE(0.01),#151,
'DISTANCE_ACCURACY_VALUE',
'Maximum model space distance between geometric entities at asserted c
onnectivities');
#149=(
GEOMETRIC_REPRESENTATION_CONTEXT(3)
GLOBAL_UNCERTAINTY_ASSIGNED_CONTEXT((#147))
GLOBAL_UNIT_ASSIGNED_CONTEXT((#151,#153,#154))
REPRESENTATION_CONTEXT('','3D')
);
#150=(
GEOMETRIC_REPRESENTATION_CONTEXT(3)
GLOBAL_UNCERTAINTY_ASSIGNED_CONTEXT((#148))
GLOBAL_UNIT_ASSIGNED_CONTEXT((#151,#153,#154))
REPRESENTATION_CONTEXT('','3D')
);
#151=(
LENGTH_UNIT()
NAMED_UNIT(*)
SI_UNIT(.MILLI.,.METRE.)
);
#152=(
LENGTH_UNIT()
NAMED_UNIT(*)
SI_UNIT($,.METRE.)
);
#153=(
NAMED_UNIT(*)
PLANE_ANGLE_UNIT()
SI_UNIT($,.RADIAN.)
);
#154=(
NAMED_UNIT(*)
SI_UNIT($,.STERADIAN.)
SOLID_ANGLE_UNIT()
);
#155=SHAPE_DEFINITION_REPRESENTATION(#156,#157);
#156=PRODUCT_DEFINITION_SHAPE('',$,#159);
#157=SHAPE_REPRESENTATION('',(#92),#149);
#158=PRODUCT_DEFINITION_CONTEXT('part definition',#163,'design');
#159=PRODUCT_DEFINITION('incisionneur version 12',
'incisionneur version 12 v143',#160,#158);
#160=PRODUCT_DEFINITION_FORMATION('',$,#165);
#161=PRODUCT_RELATED_PRODUCT_CATEGORY('incisionneur version 12 v143',
'incisionneur version 12 v143',(#165));
#162=APPLICATION_PROTOCOL_DEFINITION('international standard',
'automotive_design',2009,#163);
#163=APPLICATION_CONTEXT(
'Core Data for Automotive Mechanical Design Process');
#164=PRODUCT_CONTEXT('part definition',#163,'mechanical');
#165=PRODUCT('incisionneur version 12','incisionneur version 12 v143',$,
(#164));
#166=PRESENTATION_STYLE_ASSIGNMENT((#181));
#167=PRESENTATION_STYLE_ASSIGNMENT((#182));
#168=PRESENTATION_STYLE_ASSIGNMENT((#183));
#169=PRESENTATION_STYLE_ASSIGNMENT((#184));
#170=PRESENTATION_STYLE_ASSIGNMENT((#185));
#171=PRESENTATION_STYLE_ASSIGNMENT((#186));
#172=PRESENTATION_STYLE_ASSIGNMENT((#187));
#173=PRESENTATION_STYLE_ASSIGNMENT((#188));
#174=PRESENTATION_STYLE_ASSIGNMENT((#189));
#175=PRESENTATION_STYLE_ASSIGNMENT((#190));
#176=PRESENTATION_STYLE_ASSIGNMENT((#191));
#177=PRESENTATION_STYLE_ASSIGNMENT((#192));
#178=PRESENTATION_STYLE_ASSIGNMENT((#193));
#179=PRESENTATION_STYLE_ASSIGNMENT((#194));
#180=PRESENTATION_STYLE_ASSIGNMENT((#195));
#181=SURFACE_STYLE_USAGE(.BOTH.,#196);
#182=SURFACE_STYLE_USAGE(.BOTH.,#197);
#183=SURFACE_STYLE_USAGE(.BOTH.,#198);
#184=SURFACE_STYLE_USAGE(.BOTH.,#199);
#185=SURFACE_STYLE_USAGE(.BOTH.,#200);
#186=SURFACE_STYLE_USAGE(.BOTH.,#201);
#187=SURFACE_STYLE_USAGE(.BOTH.,#202);
#188=SURFACE_STYLE_USAGE(.BOTH.,#203);
#189=SURFACE_STYLE_USAGE(.BOTH.,#204);
#190=SURFACE_STYLE_USAGE(.BOTH.,#205);
#191=SURFACE_STYLE_USAGE(.BOTH.,#206);
#192=SURFACE_STYLE_USAGE(.BOTH.,#207);
#193=SURFACE_STYLE_USAGE(.BOTH.,#208);
#194=SURFACE_STYLE_USAGE(.BOTH.,#209);
#195=SURFACE_STYLE_USAGE(.BOTH.,#210);
#196=SURFACE_SIDE_STYLE('',(#211));
#197=SURFACE_SIDE_STYLE('',(#212));
#198=SURFACE_SIDE_STYLE('',(#213));
#199=SURFACE_SIDE_STYLE('',(#214));
#200=SURFACE_SIDE_STYLE('',(#215));
#201=SURFACE_SIDE_STYLE('',(#216));
#202=SURFACE_SIDE_STYLE('',(#217));
#203=SURFACE_SIDE_STYLE('',(#218));
#204=SURFACE_SIDE_STYLE('',(#219));
#205=SURFACE_SIDE_STYLE('',(#220));
#206=SURFACE_SIDE_STYLE('',(#221));
#207=SURFACE_SIDE_STYLE('',(#222));
#208=SURFACE_SIDE_STYLE('',(#223));
#209=SURFACE_SIDE_STYLE('',(#224));
#210=SURFACE_SIDE_STYLE('',(#225));
#211=SURFACE_STYLE_FILL_AREA(#226);
#212=SURFACE_STYLE_FILL_AREA(#227);
#213=SURFACE_STYLE_FILL_AREA(#228);
#214=SURFACE_STYLE_FILL_AREA(#229);
#215=SURFACE_STYLE_FILL_AREA(#230);
#216=SURFACE_STYLE_FILL_AREA(#231);
#217=SURFACE_STYLE_FILL_AREA(#232);
#218=SURFACE_STYLE_FILL_AREA(#233);
#219=SURFACE_STYLE_FILL_AREA(#234);
#220=SURFACE_STYLE_FILL_AREA(#235);
#221=SURFACE_STYLE_FILL_AREA(#236);
#222=SURFACE_STYLE_FILL_AREA(#237);
#223=SURFACE_STYLE_FILL_AREA(#238);
#224=SURFACE_STYLE_FILL_AREA(#239);
#225=SURFACE_STYLE_FILL_AREA(#240);
#226=FILL_AREA_STYLE('Acier - Satin\X\E9',(#241));
#227=FILL_AREA_STYLE('Plastique - Brillant (rouge) (1) (2)',(#242));
#228=FILL_AREA_STYLE('Plastique - Brillant (jaune) (1)',(#243));
#229=FILL_AREA_STYLE('Plastique - Brillant (gris) (1)',(#244));
#230=FILL_AREA_STYLE('Acier inoxydable - Satin\X\E9',(#245));
#231=FILL_AREA_STYLE('Mat\X\E9riau de base - Transparent',(#246));
#232=FILL_AREA_STYLE('Plastique - Brillant (gris) (2) (1)',(#247));
#233=FILL_AREA_STYLE('Plastique - Brillant (rouge) (2)',(#248));
#234=FILL_AREA_STYLE('Caoutchouc - Souple',(#249));
#235=FILL_AREA_STYLE('Caoutchouc - Souple (1)',(#250));
#236=FILL_AREA_STYLE('Silicone (blanc)',(#251));
#237=FILL_AREA_STYLE('Acier - Satin\X\E9',(#252));
#238=FILL_AREA_STYLE('Plastique - Brillant (jaune) (1) (1)',(#253));
#239=FILL_AREA_STYLE('Acier - Satin\X\E9 (2)',(#254));
#240=FILL_AREA_STYLE('Acier - Satin\X\E9 (1)',(#255));
#241=FILL_AREA_STYLE_COLOUR('Acier - Satin\X\E9',#256);
#242=FILL_AREA_STYLE_COLOUR('Plastique - Brillant (rouge) (1) (2)',#257);
#243=FILL_AREA_STYLE_COLOUR('Plastique - Brillant (jaune) (1)',#258);
#244=FILL_AREA_STYLE_COLOUR('Plastique - Brillant (gris) (1)',#259);
#245=FILL_AREA_STYLE_COLOUR('Acier inoxydable - Satin\X\E9',#260);
#246=FILL_AREA_STYLE_COLOUR('Mat\X\E9riau de base - Transparent',#261);
#247=FILL_AREA_STYLE_COLOUR('Plastique - Brillant (gris) (2) (1)',#262);
#248=FILL_AREA_STYLE_COLOUR('Plastique - Brillant (rouge) (2)',#263);
#249=FILL_AREA_STYLE_COLOUR('Caoutchouc - Souple',#264);
#250=FILL_AREA_STYLE_COLOUR('Caoutchouc - Souple (1)',#265);
#251=FILL_AREA_STYLE_COLOUR('Silicone (blanc)',#266);
#252=FILL_AREA_STYLE_COLOUR('Acier - Satin\X\E9',#267);
#253=FILL_AREA_STYLE_COLOUR('Plastique - Brillant (jaune) (1) (1)',#268);
#254=FILL_AREA_STYLE_COLOUR('Acier - Satin\X\E9 (2)',#269);
#255=FILL_AREA_STYLE_COLOUR('Acier - Satin\X\E9 (1)',#270);
#256=COLOUR_RGB('Acier - Satin\X\E9',0.627450980392157,0.627450980392157,
0.627450980392157);
#257=COLOUR_RGB('Plastique - Brillant (rouge) (1) (2)',0.870588235294118,
1.,0.0117647058823529);
#258=COLOUR_RGB('Plastique - Brillant (jaune) (1)',0.72156862745098,1.,
0.650980392156863);
#259=COLOUR_RGB('Plastique - Brillant (gris) (1)',0.,1.,1.);
#260=COLOUR_RGB('Acier inoxydable - Satin\X\E9',0.,1.,0.180392156862745);
#261=COLOUR_RGB('Mat\X\E9riau de base - Transparent',0.450980392156863,
0.450980392156863,0.450980392156863);
#262=COLOUR_RGB('Plastique - Brillant (gris) (2) (1)',1.,0.431372549019608,
0.);
#263=COLOUR_RGB('Plastique - Brillant (rouge) (2)',0.223529411764706,0.0745098039215686,
0.968627450980392);
#264=COLOUR_RGB('Caoutchouc - Souple',0.152941176470588,0.152941176470588,
0.152941176470588);
#265=COLOUR_RGB('Caoutchouc - Souple (1)',0.6,0.6,0.6);
#266=COLOUR_RGB('Silicone (blanc)',0.964705882352941,0.964705882352941,
0.952941176470588);
#267=COLOUR_RGB('Acier - Satin\X\E9',0.850980392156863,0.850980392156863,
0.850980392156863);
#268=COLOUR_RGB('Plastique - Brillant (jaune) (1) (1)',0.666666666666667,
1.,0.498039215686275);
#269=COLOUR_RGB('Acier - Satin\X\E9 (2)',0.627450980392157,0.611764705882353,
0.611764705882353);
#270=COLOUR_RGB('Acier - Satin\X\E9 (1)',1.,1.,1.);
ENDSEC;
END-ISO-10303-21;
