ISO-10303-21;
HEADER;
/* Generated by software containing ST-Developer
 * from STEP Tools, Inc. (www.steptools.com) 
 */

FILE_DESCRIPTION(
/* description */ (''),
/* implementation_level */ '2;1');

FILE_NAME(
/* name */ 
'C:/Users/jojo/Dropbox/EXOMODUL/TECHNIQUE-pieces proto/PROTO 4.0/B/PIE
D embout ALU Q2 v4.step',
/* time_stamp */ '2020-10-01T23:33:20+02:00',
/* author */ (''),
/* organization */ (''),
/* preprocessor_version */ 'ST-DEVELOPER v18.1',
/* originating_system */ 'Autodesk Translation Framework v9.3.0.1241',
/* authorisation */ '');

FILE_SCHEMA (('AUTOMOTIVE_DESIGN { 1 0 10303 214 3 1 1 }'));
ENDSEC;

DATA;
#10=MECHANICAL_DESIGN_GEOMETRIC_PRESENTATION_REPRESENTATION('',(#13),#436);
#11=SHAPE_REPRESENTATION_RELATIONSHIP('SRR','None',#443,#12);
#12=ADVANCED_BREP_SHAPE_REPRESENTATION('',(#14),#435);
#13=STYLED_ITEM('',(#452),#14);
#14=MANIFOLD_SOLID_BREP('Body2',#256);
#15=CYLINDRICAL_SURFACE('',#280,4.);
#16=CYLINDRICAL_SURFACE('',#288,12.);
#17=CYLINDRICAL_SURFACE('',#291,9.8);
#18=FACE_BOUND('',#54,.T.);
#19=FACE_BOUND('',#58,.T.);
#20=FACE_BOUND('',#62,.T.);
#21=FACE_BOUND('',#65,.T.);
#22=PLANE('',#273);
#23=PLANE('',#274);
#24=PLANE('',#275);
#25=PLANE('',#276);
#26=PLANE('',#277);
#27=PLANE('',#279);
#28=PLANE('',#282);
#29=PLANE('',#283);
#30=PLANE('',#284);
#31=PLANE('',#285);
#32=PLANE('',#290);
#33=FACE_OUTER_BOUND('',#48,.T.);
#34=FACE_OUTER_BOUND('',#49,.T.);
#35=FACE_OUTER_BOUND('',#50,.T.);
#36=FACE_OUTER_BOUND('',#51,.T.);
#37=FACE_OUTER_BOUND('',#52,.T.);
#38=FACE_OUTER_BOUND('',#53,.T.);
#39=FACE_OUTER_BOUND('',#55,.T.);
#40=FACE_OUTER_BOUND('',#56,.T.);
#41=FACE_OUTER_BOUND('',#57,.T.);
#42=FACE_OUTER_BOUND('',#59,.T.);
#43=FACE_OUTER_BOUND('',#60,.T.);
#44=FACE_OUTER_BOUND('',#61,.T.);
#45=FACE_OUTER_BOUND('',#63,.T.);
#46=FACE_OUTER_BOUND('',#64,.T.);
#47=FACE_OUTER_BOUND('',#66,.T.);
#48=EDGE_LOOP('',(#176,#177,#178,#179,#180));
#49=EDGE_LOOP('',(#181,#182,#183,#184));
#50=EDGE_LOOP('',(#185));
#51=EDGE_LOOP('',(#186,#187,#188,#189));
#52=EDGE_LOOP('',(#190,#191,#192,#193));
#53=EDGE_LOOP('',(#194,#195,#196,#197,#198,#199));
#54=EDGE_LOOP('',(#200));
#55=EDGE_LOOP('',(#201,#202,#203,#204));
#56=EDGE_LOOP('',(#205,#206,#207,#208));
#57=EDGE_LOOP('',(#209,#210,#211,#212,#213,#214));
#58=EDGE_LOOP('',(#215));
#59=EDGE_LOOP('',(#216,#217,#218,#219));
#60=EDGE_LOOP('',(#220,#221,#222,#223));
#61=EDGE_LOOP('',(#224));
#62=EDGE_LOOP('',(#225,#226));
#63=EDGE_LOOP('',(#227,#228,#229,#230));
#64=EDGE_LOOP('',(#231));
#65=EDGE_LOOP('',(#232,#233,#234,#235));
#66=EDGE_LOOP('',(#236,#237,#238,#239));
#67=LINE('',#371,#91);
#68=LINE('',#375,#92);
#69=LINE('',#377,#93);
#70=LINE('',#378,#94);
#71=LINE('',#383,#95);
#72=LINE('',#385,#96);
#73=LINE('',#387,#97);
#74=LINE('',#388,#98);
#75=LINE('',#391,#99);
#76=LINE('',#393,#100);
#77=LINE('',#394,#101);
#78=LINE('',#397,#102);
#79=LINE('',#399,#103);
#80=LINE('',#401,#104);
#81=LINE('',#402,#105);
#82=LINE('',#407,#106);
#83=LINE('',#408,#107);
#84=LINE('',#412,#108);
#85=LINE('',#415,#109);
#86=LINE('',#417,#110);
#87=LINE('',#418,#111);
#88=LINE('',#420,#112);
#89=LINE('',#422,#113);
#90=LINE('',#430,#114);
#91=VECTOR('',#298,8.8);
#92=VECTOR('',#303,10.);
#93=VECTOR('',#304,10.);
#94=VECTOR('',#305,10.);
#95=VECTOR('',#310,10.);
#96=VECTOR('',#311,10.);
#97=VECTOR('',#312,10.);
#98=VECTOR('',#313,10.);
#99=VECTOR('',#316,10.);
#100=VECTOR('',#317,10.);
#101=VECTOR('',#318,10.);
#102=VECTOR('',#321,10.);
#103=VECTOR('',#322,10.);
#104=VECTOR('',#323,10.);
#105=VECTOR('',#324,10.);
#106=VECTOR('',#329,10.);
#107=VECTOR('',#330,10.);
#108=VECTOR('',#335,4.);
#109=VECTOR('',#338,10.);
#110=VECTOR('',#339,10.);
#111=VECTOR('',#340,10.);
#112=VECTOR('',#343,10.);
#113=VECTOR('',#346,10.);
#114=VECTOR('',#357,12.);
#115=CIRCLE('',#271,9.8);
#116=CIRCLE('',#272,7.8);
#117=CIRCLE('',#278,4.);
#118=CIRCLE('',#281,4.);
#119=CIRCLE('',#286,12.);
#120=CIRCLE('',#287,9.8);
#121=CIRCLE('',#289,12.);
#122=(
BOUNDED_CURVE()
B_SPLINE_CURVE(2,(#366,#367,#368),.UNSPECIFIED.,.F.,.F.)
B_SPLINE_CURVE_WITH_KNOTS((3,3),(2.29529483773185,7.39560811297405),
 .UNSPECIFIED.)
CURVE()
GEOMETRIC_REPRESENTATION_ITEM()
RATIONAL_B_SPLINE_CURVE((1.41573033707869,1.73426966292131,1.41573033707869))
REPRESENTATION_ITEM('')
);
#123=VERTEX_POINT('',#364);
#124=VERTEX_POINT('',#365);
#125=VERTEX_POINT('',#370);
#126=VERTEX_POINT('',#374);
#127=VERTEX_POINT('',#376);
#128=VERTEX_POINT('',#381);
#129=VERTEX_POINT('',#382);
#130=VERTEX_POINT('',#384);
#131=VERTEX_POINT('',#386);
#132=VERTEX_POINT('',#390);
#133=VERTEX_POINT('',#392);
#134=VERTEX_POINT('',#396);
#135=VERTEX_POINT('',#398);
#136=VERTEX_POINT('',#400);
#137=VERTEX_POINT('',#403);
#138=VERTEX_POINT('',#406);
#139=VERTEX_POINT('',#410);
#140=VERTEX_POINT('',#414);
#141=VERTEX_POINT('',#416);
#142=VERTEX_POINT('',#424);
#143=VERTEX_POINT('',#428);
#144=EDGE_CURVE('',#123,#124,#122,.T.);
#145=EDGE_CURVE('',#124,#123,#115,.T.);
#146=EDGE_CURVE('',#123,#125,#67,.T.);
#147=EDGE_CURVE('',#125,#125,#116,.T.);
#148=EDGE_CURVE('',#123,#126,#68,.T.);
#149=EDGE_CURVE('',#127,#126,#69,.T.);
#150=EDGE_CURVE('',#124,#127,#70,.T.);
#151=EDGE_CURVE('',#128,#129,#71,.T.);
#152=EDGE_CURVE('',#129,#130,#72,.T.);
#153=EDGE_CURVE('',#130,#131,#73,.T.);
#154=EDGE_CURVE('',#131,#128,#74,.T.);
#155=EDGE_CURVE('',#129,#132,#75,.T.);
#156=EDGE_CURVE('',#133,#132,#76,.T.);
#157=EDGE_CURVE('',#133,#130,#77,.T.);
#158=EDGE_CURVE('',#134,#128,#78,.T.);
#159=EDGE_CURVE('',#135,#134,#79,.T.);
#160=EDGE_CURVE('',#135,#136,#80,.T.);
#161=EDGE_CURVE('',#132,#136,#81,.T.);
#162=EDGE_CURVE('',#137,#137,#117,.T.);
#163=EDGE_CURVE('',#138,#133,#82,.T.);
#164=EDGE_CURVE('',#136,#138,#83,.T.);
#165=EDGE_CURVE('',#139,#139,#118,.T.);
#166=EDGE_CURVE('',#139,#137,#84,.T.);
#167=EDGE_CURVE('',#140,#138,#85,.T.);
#168=EDGE_CURVE('',#141,#140,#86,.T.);
#169=EDGE_CURVE('',#141,#131,#87,.T.);
#170=EDGE_CURVE('',#140,#135,#88,.T.);
#171=EDGE_CURVE('',#134,#141,#89,.T.);
#172=EDGE_CURVE('',#142,#142,#119,.T.);
#173=EDGE_CURVE('',#126,#127,#120,.T.);
#174=EDGE_CURVE('',#143,#143,#121,.T.);
#175=EDGE_CURVE('',#143,#142,#90,.T.);
#176=ORIENTED_EDGE('',*,*,#144,.T.);
#177=ORIENTED_EDGE('',*,*,#145,.T.);
#178=ORIENTED_EDGE('',*,*,#146,.T.);
#179=ORIENTED_EDGE('',*,*,#147,.T.);
#180=ORIENTED_EDGE('',*,*,#146,.F.);
#181=ORIENTED_EDGE('',*,*,#144,.F.);
#182=ORIENTED_EDGE('',*,*,#148,.T.);
#183=ORIENTED_EDGE('',*,*,#149,.F.);
#184=ORIENTED_EDGE('',*,*,#150,.F.);
#185=ORIENTED_EDGE('',*,*,#147,.F.);
#186=ORIENTED_EDGE('',*,*,#151,.T.);
#187=ORIENTED_EDGE('',*,*,#152,.T.);
#188=ORIENTED_EDGE('',*,*,#153,.T.);
#189=ORIENTED_EDGE('',*,*,#154,.T.);
#190=ORIENTED_EDGE('',*,*,#152,.F.);
#191=ORIENTED_EDGE('',*,*,#155,.T.);
#192=ORIENTED_EDGE('',*,*,#156,.F.);
#193=ORIENTED_EDGE('',*,*,#157,.T.);
#194=ORIENTED_EDGE('',*,*,#151,.F.);
#195=ORIENTED_EDGE('',*,*,#158,.F.);
#196=ORIENTED_EDGE('',*,*,#159,.F.);
#197=ORIENTED_EDGE('',*,*,#160,.T.);
#198=ORIENTED_EDGE('',*,*,#161,.F.);
#199=ORIENTED_EDGE('',*,*,#155,.F.);
#200=ORIENTED_EDGE('',*,*,#162,.T.);
#201=ORIENTED_EDGE('',*,*,#163,.T.);
#202=ORIENTED_EDGE('',*,*,#156,.T.);
#203=ORIENTED_EDGE('',*,*,#161,.T.);
#204=ORIENTED_EDGE('',*,*,#164,.T.);
#205=ORIENTED_EDGE('',*,*,#165,.F.);
#206=ORIENTED_EDGE('',*,*,#166,.T.);
#207=ORIENTED_EDGE('',*,*,#162,.F.);
#208=ORIENTED_EDGE('',*,*,#166,.F.);
#209=ORIENTED_EDGE('',*,*,#153,.F.);
#210=ORIENTED_EDGE('',*,*,#157,.F.);
#211=ORIENTED_EDGE('',*,*,#163,.F.);
#212=ORIENTED_EDGE('',*,*,#167,.F.);
#213=ORIENTED_EDGE('',*,*,#168,.F.);
#214=ORIENTED_EDGE('',*,*,#169,.T.);
#215=ORIENTED_EDGE('',*,*,#165,.T.);
#216=ORIENTED_EDGE('',*,*,#164,.F.);
#217=ORIENTED_EDGE('',*,*,#160,.F.);
#218=ORIENTED_EDGE('',*,*,#170,.F.);
#219=ORIENTED_EDGE('',*,*,#167,.T.);
#220=ORIENTED_EDGE('',*,*,#154,.F.);
#221=ORIENTED_EDGE('',*,*,#169,.F.);
#222=ORIENTED_EDGE('',*,*,#171,.F.);
#223=ORIENTED_EDGE('',*,*,#158,.T.);
#224=ORIENTED_EDGE('',*,*,#172,.F.);
#225=ORIENTED_EDGE('',*,*,#149,.T.);
#226=ORIENTED_EDGE('',*,*,#173,.T.);
#227=ORIENTED_EDGE('',*,*,#174,.F.);
#228=ORIENTED_EDGE('',*,*,#175,.T.);
#229=ORIENTED_EDGE('',*,*,#172,.T.);
#230=ORIENTED_EDGE('',*,*,#175,.F.);
#231=ORIENTED_EDGE('',*,*,#174,.T.);
#232=ORIENTED_EDGE('',*,*,#168,.T.);
#233=ORIENTED_EDGE('',*,*,#170,.T.);
#234=ORIENTED_EDGE('',*,*,#159,.T.);
#235=ORIENTED_EDGE('',*,*,#171,.T.);
#236=ORIENTED_EDGE('',*,*,#145,.F.);
#237=ORIENTED_EDGE('',*,*,#150,.T.);
#238=ORIENTED_EDGE('',*,*,#173,.F.);
#239=ORIENTED_EDGE('',*,*,#148,.F.);
#240=CONICAL_SURFACE('',#270,8.8,0.197395559849881);
#241=ADVANCED_FACE('',(#33),#240,.T.);
#242=ADVANCED_FACE('',(#34),#22,.T.);
#243=ADVANCED_FACE('',(#35),#23,.F.);
#244=ADVANCED_FACE('',(#36),#24,.T.);
#245=ADVANCED_FACE('',(#37),#25,.T.);
#246=ADVANCED_FACE('',(#38,#18),#26,.T.);
#247=ADVANCED_FACE('',(#39),#27,.T.);
#248=ADVANCED_FACE('',(#40),#15,.F.);
#249=ADVANCED_FACE('',(#41,#19),#28,.T.);
#250=ADVANCED_FACE('',(#42),#29,.T.);
#251=ADVANCED_FACE('',(#43),#30,.T.);
#252=ADVANCED_FACE('',(#44,#20),#31,.F.);
#253=ADVANCED_FACE('',(#45),#16,.T.);
#254=ADVANCED_FACE('',(#46,#21),#32,.T.);
#255=ADVANCED_FACE('',(#47),#17,.T.);
#256=CLOSED_SHELL('',(#241,#242,#243,#244,#245,#246,#247,#248,#249,#250,
#251,#252,#253,#254,#255));
#257=DERIVED_UNIT_ELEMENT(#259,1.);
#258=DERIVED_UNIT_ELEMENT(#438,3.);
#259=(
MASS_UNIT()
NAMED_UNIT(*)
SI_UNIT(.KILO.,.GRAM.)
);
#260=DERIVED_UNIT((#257,#258));
#261=MEASURE_REPRESENTATION_ITEM('density measure',
POSITIVE_RATIO_MEASURE(7850.),#260);
#262=PROPERTY_DEFINITION_REPRESENTATION(#267,#264);
#263=PROPERTY_DEFINITION_REPRESENTATION(#268,#265);
#264=REPRESENTATION('material name',(#266),#435);
#265=REPRESENTATION('density',(#261),#435);
#266=DESCRIPTIVE_REPRESENTATION_ITEM('Steel','Steel');
#267=PROPERTY_DEFINITION('material property','material name',#445);
#268=PROPERTY_DEFINITION('material property','density of part',#445);
#269=AXIS2_PLACEMENT_3D('placement',#362,#292,#293);
#270=AXIS2_PLACEMENT_3D('',#363,#294,#295);
#271=AXIS2_PLACEMENT_3D('',#369,#296,#297);
#272=AXIS2_PLACEMENT_3D('',#372,#299,#300);
#273=AXIS2_PLACEMENT_3D('',#373,#301,#302);
#274=AXIS2_PLACEMENT_3D('',#379,#306,#307);
#275=AXIS2_PLACEMENT_3D('',#380,#308,#309);
#276=AXIS2_PLACEMENT_3D('',#389,#314,#315);
#277=AXIS2_PLACEMENT_3D('',#395,#319,#320);
#278=AXIS2_PLACEMENT_3D('',#404,#325,#326);
#279=AXIS2_PLACEMENT_3D('',#405,#327,#328);
#280=AXIS2_PLACEMENT_3D('',#409,#331,#332);
#281=AXIS2_PLACEMENT_3D('',#411,#333,#334);
#282=AXIS2_PLACEMENT_3D('',#413,#336,#337);
#283=AXIS2_PLACEMENT_3D('',#419,#341,#342);
#284=AXIS2_PLACEMENT_3D('',#421,#344,#345);
#285=AXIS2_PLACEMENT_3D('',#423,#347,#348);
#286=AXIS2_PLACEMENT_3D('',#425,#349,#350);
#287=AXIS2_PLACEMENT_3D('',#426,#351,#352);
#288=AXIS2_PLACEMENT_3D('',#427,#353,#354);
#289=AXIS2_PLACEMENT_3D('',#429,#355,#356);
#290=AXIS2_PLACEMENT_3D('',#431,#358,#359);
#291=AXIS2_PLACEMENT_3D('',#432,#360,#361);
#292=DIRECTION('axis',(0.,0.,1.));
#293=DIRECTION('refdir',(1.,0.,0.));
#294=DIRECTION('center_axis',(0.,0.,1.));
#295=DIRECTION('ref_axis',(-0.816326530612245,-0.577590681554486,0.));
#296=DIRECTION('center_axis',(0.,0.,-1.));
#297=DIRECTION('ref_axis',(-0.816326530612245,-0.577590681554486,0.));
#298=DIRECTION('',(-0.160094804194436,-0.113274852158295,-0.98058067569092));
#299=DIRECTION('center_axis',(0.,0.,1.));
#300=DIRECTION('ref_axis',(-0.816326530612245,-0.577590681554486,0.));
#301=DIRECTION('center_axis',(1.,0.,0.));
#302=DIRECTION('ref_axis',(0.,1.,0.));
#303=DIRECTION('',(0.,0.,1.));
#304=DIRECTION('',(0.,1.,0.));
#305=DIRECTION('',(0.,0.,1.));
#306=DIRECTION('center_axis',(0.,0.,1.));
#307=DIRECTION('ref_axis',(1.,0.,0.));
#308=DIRECTION('center_axis',(0.707106781186548,0.,0.707106781186548));
#309=DIRECTION('ref_axis',(0.707106781186548,0.,-0.707106781186548));
#310=DIRECTION('',(-0.707106781186548,0.,0.707106781186548));
#311=DIRECTION('',(0.,-1.,0.));
#312=DIRECTION('',(0.707106781186548,0.,-0.707106781186548));
#313=DIRECTION('',(0.,1.,0.));
#314=DIRECTION('center_axis',(0.,0.,1.));
#315=DIRECTION('ref_axis',(1.,0.,0.));
#316=DIRECTION('',(-1.,0.,0.));
#317=DIRECTION('',(0.,1.,0.));
#318=DIRECTION('',(1.,0.,0.));
#319=DIRECTION('center_axis',(0.,1.,0.));
#320=DIRECTION('ref_axis',(-1.,0.,0.));
#321=DIRECTION('',(0.,0.,1.));
#322=DIRECTION('',(1.,0.,0.));
#323=DIRECTION('',(0.,0.,1.));
#324=DIRECTION('',(-0.707106781186548,0.,-0.707106781186548));
#325=DIRECTION('center_axis',(0.,-1.,0.));
#326=DIRECTION('ref_axis',(1.,0.,0.));
#327=DIRECTION('center_axis',(-0.707106781186548,0.,0.707106781186548));
#328=DIRECTION('ref_axis',(0.707106781186548,0.,0.707106781186548));
#329=DIRECTION('',(0.707106781186548,0.,0.707106781186548));
#330=DIRECTION('',(0.,-1.,0.));
#331=DIRECTION('center_axis',(0.,1.,0.));
#332=DIRECTION('ref_axis',(1.,0.,0.));
#333=DIRECTION('center_axis',(0.,1.,0.));
#334=DIRECTION('ref_axis',(1.,0.,0.));
#335=DIRECTION('',(0.,1.,0.));
#336=DIRECTION('center_axis',(0.,-1.,0.));
#337=DIRECTION('ref_axis',(1.,0.,0.));
#338=DIRECTION('',(0.,0.,1.));
#339=DIRECTION('',(-1.,0.,0.));
#340=DIRECTION('',(0.,0.,1.));
#341=DIRECTION('center_axis',(-1.,0.,0.));
#342=DIRECTION('ref_axis',(0.,-1.,0.));
#343=DIRECTION('',(0.,1.,0.));
#344=DIRECTION('center_axis',(1.,0.,0.));
#345=DIRECTION('ref_axis',(0.,1.,0.));
#346=DIRECTION('',(0.,-1.,0.));
#347=DIRECTION('center_axis',(0.,0.,1.));
#348=DIRECTION('ref_axis',(1.,0.,0.));
#349=DIRECTION('center_axis',(0.,0.,1.));
#350=DIRECTION('ref_axis',(1.,0.,0.));
#351=DIRECTION('center_axis',(0.,0.,1.));
#352=DIRECTION('ref_axis',(0.816326530612245,0.577590681554486,0.));
#353=DIRECTION('center_axis',(0.,0.,1.));
#354=DIRECTION('ref_axis',(1.,0.,0.));
#355=DIRECTION('center_axis',(0.,0.,1.));
#356=DIRECTION('ref_axis',(1.,0.,0.));
#357=DIRECTION('',(0.,0.,-1.));
#358=DIRECTION('center_axis',(0.,0.,1.));
#359=DIRECTION('ref_axis',(1.,0.,0.));
#360=DIRECTION('center_axis',(0.,0.,1.));
#361=DIRECTION('ref_axis',(-1.,2.26576127474522E-16,0.));
#362=CARTESIAN_POINT('',(0.,0.,0.));
#363=CARTESIAN_POINT('Origin',(0.,0.,5.));
#364=CARTESIAN_POINT('',(8.,5.66038867923396,10.));
#365=CARTESIAN_POINT('',(8.,-5.66038867923397,10.));
#366=CARTESIAN_POINT('Ctrl Pts',(8.,5.66038867923396,10.));
#367=CARTESIAN_POINT('Ctrl Pts',(8.,-5.340172748447E-13,-6.3469387755055));
#368=CARTESIAN_POINT('Ctrl Pts',(8.,-5.66038867923397,10.));
#369=CARTESIAN_POINT('Origin',(0.,0.,10.));
#370=CARTESIAN_POINT('',(6.36734693877551,4.50520731612499,0.));
#371=CARTESIAN_POINT('',(7.18367346938776,5.08279799767948,5.));
#372=CARTESIAN_POINT('Origin',(0.,0.,0.));
#373=CARTESIAN_POINT('Origin',(8.,-5.66038867923396,0.));
#374=CARTESIAN_POINT('',(8.,5.66038867923396,47.));
#375=CARTESIAN_POINT('',(8.,5.66038867923396,0.));
#376=CARTESIAN_POINT('',(8.,-5.66038867923396,47.));
#377=CARTESIAN_POINT('',(8.,5.66038867923396,47.));
#378=CARTESIAN_POINT('',(8.,-5.66038867923397,0.));
#379=CARTESIAN_POINT('Origin',(-0.9,-1.11022302462516E-15,0.));
#380=CARTESIAN_POINT('Origin',(5.5,-1.7,63.5));
#381=CARTESIAN_POINT('',(8.,3.4,61.));
#382=CARTESIAN_POINT('',(3.,3.4,66.));
#383=CARTESIAN_POINT('',(9.5,3.4,59.5));
#384=CARTESIAN_POINT('',(3.,-3.4,66.));
#385=CARTESIAN_POINT('',(3.,-1.7,66.));
#386=CARTESIAN_POINT('',(8.,-3.4,61.));
#387=CARTESIAN_POINT('',(5.5,-3.4,63.5));
#388=CARTESIAN_POINT('',(8.,-1.7,61.));
#389=CARTESIAN_POINT('Origin',(0.,0.,66.));
#390=CARTESIAN_POINT('',(-3.,3.4,66.));
#391=CARTESIAN_POINT('',(8.,3.4,66.));
#392=CARTESIAN_POINT('',(-3.,-3.4,66.));
#393=CARTESIAN_POINT('',(-3.,1.7,66.));
#394=CARTESIAN_POINT('',(-8.,-3.4,66.));
#395=CARTESIAN_POINT('Origin',(8.,3.4,50.));
#396=CARTESIAN_POINT('',(8.,3.4,50.));
#397=CARTESIAN_POINT('',(8.,3.4,50.));
#398=CARTESIAN_POINT('',(-8.,3.4,50.));
#399=CARTESIAN_POINT('',(4.,3.4,50.));
#400=CARTESIAN_POINT('',(-8.,3.4,61.));
#401=CARTESIAN_POINT('',(-8.,3.4,50.));
#402=CARTESIAN_POINT('',(-5.5,3.4,63.5));
#403=CARTESIAN_POINT('',(-4.,3.4,59.));
#404=CARTESIAN_POINT('Origin',(0.,3.4,59.));
#405=CARTESIAN_POINT('Origin',(-5.5,1.7,63.5));
#406=CARTESIAN_POINT('',(-8.,-3.4,61.));
#407=CARTESIAN_POINT('',(-9.5,-3.4,59.5));
#408=CARTESIAN_POINT('',(-8.,1.7,61.));
#409=CARTESIAN_POINT('Origin',(0.,-3.4,59.));
#410=CARTESIAN_POINT('',(-4.,-3.4,59.));
#411=CARTESIAN_POINT('Origin',(0.,-3.4,59.));
#412=CARTESIAN_POINT('',(-4.,-3.4,59.));
#413=CARTESIAN_POINT('Origin',(-8.,-3.4,50.));
#414=CARTESIAN_POINT('',(-8.,-3.4,50.));
#415=CARTESIAN_POINT('',(-8.,-3.4,50.));
#416=CARTESIAN_POINT('',(8.,-3.4,50.));
#417=CARTESIAN_POINT('',(-4.,-3.4,50.));
#418=CARTESIAN_POINT('',(8.,-3.4,50.));
#419=CARTESIAN_POINT('Origin',(-8.,3.4,50.));
#420=CARTESIAN_POINT('',(-8.,1.7,50.));
#421=CARTESIAN_POINT('Origin',(8.,-3.4,50.));
#422=CARTESIAN_POINT('',(8.,-1.7,50.));
#423=CARTESIAN_POINT('Origin',(0.,0.,47.));
#424=CARTESIAN_POINT('',(-12.,-1.46957615897682E-15,47.));
#425=CARTESIAN_POINT('Origin',(0.,0.,47.));
#426=CARTESIAN_POINT('Origin',(0.,0.,47.));
#427=CARTESIAN_POINT('Origin',(0.,0.,47.));
#428=CARTESIAN_POINT('',(-12.,-1.46957615897682E-15,50.));
#429=CARTESIAN_POINT('Origin',(0.,0.,50.));
#430=CARTESIAN_POINT('',(-12.,-1.46957615897682E-15,47.));
#431=CARTESIAN_POINT('Origin',(0.,0.,50.));
#432=CARTESIAN_POINT('Origin',(0.,0.,0.));
#433=UNCERTAINTY_MEASURE_WITH_UNIT(LENGTH_MEASURE(0.01),#437,
'DISTANCE_ACCURACY_VALUE',
'Maximum model space distance between geometric entities at asserted c
onnectivities');
#434=UNCERTAINTY_MEASURE_WITH_UNIT(LENGTH_MEASURE(0.01),#437,
'DISTANCE_ACCURACY_VALUE',
'Maximum model space distance between geometric entities at asserted c
onnectivities');
#435=(
GEOMETRIC_REPRESENTATION_CONTEXT(3)
GLOBAL_UNCERTAINTY_ASSIGNED_CONTEXT((#433))
GLOBAL_UNIT_ASSIGNED_CONTEXT((#437,#439,#440))
REPRESENTATION_CONTEXT('','3D')
);
#436=(
GEOMETRIC_REPRESENTATION_CONTEXT(3)
GLOBAL_UNCERTAINTY_ASSIGNED_CONTEXT((#434))
GLOBAL_UNIT_ASSIGNED_CONTEXT((#437,#439,#440))
REPRESENTATION_CONTEXT('','3D')
);
#437=(
LENGTH_UNIT()
NAMED_UNIT(*)
SI_UNIT(.MILLI.,.METRE.)
);
#438=(
LENGTH_UNIT()
NAMED_UNIT(*)
SI_UNIT($,.METRE.)
);
#439=(
NAMED_UNIT(*)
PLANE_ANGLE_UNIT()
SI_UNIT($,.RADIAN.)
);
#440=(
NAMED_UNIT(*)
SI_UNIT($,.STERADIAN.)
SOLID_ANGLE_UNIT()
);
#441=SHAPE_DEFINITION_REPRESENTATION(#442,#443);
#442=PRODUCT_DEFINITION_SHAPE('',$,#445);
#443=SHAPE_REPRESENTATION('',(#269),#435);
#444=PRODUCT_DEFINITION_CONTEXT('part definition',#449,'design');
#445=PRODUCT_DEFINITION('PIED embout ALU Q2','PIED embout ALU Q2 v4',#446,
#444);
#446=PRODUCT_DEFINITION_FORMATION('',$,#451);
#447=PRODUCT_RELATED_PRODUCT_CATEGORY('PIED embout ALU Q2 v4',
'PIED embout ALU Q2 v4',(#451));
#448=APPLICATION_PROTOCOL_DEFINITION('international standard',
'automotive_design',2009,#449);
#449=APPLICATION_CONTEXT(
'Core Data for Automotive Mechanical Design Process');
#450=PRODUCT_CONTEXT('part definition',#449,'mechanical');
#451=PRODUCT('PIED embout ALU Q2','PIED embout ALU Q2 v4',$,(#450));
#452=PRESENTATION_STYLE_ASSIGNMENT((#453));
#453=SURFACE_STYLE_USAGE(.BOTH.,#454);
#454=SURFACE_SIDE_STYLE('',(#455));
#455=SURFACE_STYLE_FILL_AREA(#456);
#456=FILL_AREA_STYLE('Steel - Satin',(#457));
#457=FILL_AREA_STYLE_COLOUR('Steel - Satin',#458);
#458=COLOUR_RGB('Steel - Satin',0.627450980392157,0.627450980392157,0.627450980392157);
ENDSEC;
END-ISO-10303-21;
