ISO-10303-21;
HEADER;
FILE_DESCRIPTION(('CATIA V5 STEP Exchange'),'2;1');

FILE_NAME('C:\\Users\\Rivet\\Documents\\C2PU\\Hardware\\TX_W_Telescope_EnsembleFocal_2015\\Focuseur_MotoReducteur\\Modele_CATIA_v04_Crouzet82474_83\\CATDrawings\\Usineur_fr\\MotoReducteur_PalierSortieSup.stp','2020-11-26T11:36:18+00:00',('none'),('none'),'CATIA Version 5-6 Release 2017 SP5','CATIA V5 STEP AP203','none');

FILE_SCHEMA(('CONFIG_CONTROL_DESIGN'));

ENDSEC;
DATA;
#5=PRODUCT('MotoReducteur_PalierSortieSup','01.03.009.001.008','',(#2)) ;
#1=APPLICATION_CONTEXT('configuration controlled 3D design of mechanical parts and assemblies') ;
#14=PRODUCT_DEFINITION('Motor\X2\00E9\X0\ducteur: Palier de sortie sup\X2\00E9\X0\rieur',' ',#6,#3) ;
#16=SECURITY_CLASSIFICATION(' ',' ',#15) ;
#15=SECURITY_CLASSIFICATION_LEVEL('unclassified') ;
#46=CARTESIAN_POINT(' ',(0.,0.,0.)) ;
#51=CARTESIAN_POINT('Axis2P3D Location',(0.,-0.5,-1.8)) ;
#56=CARTESIAN_POINT('Line Origine',(-4.71939029498,-0.5,-1.8)) ;
#60=CARTESIAN_POINT('Vertex',(-2.95803989155,-0.5,-1.8)) ;
#62=CARTESIAN_POINT('Vertex',(-6.48074069841,-0.5,-1.8)) ;
#65=CARTESIAN_POINT('Axis2P3D Location',(0.,0.,-1.8)) ;
#69=CARTESIAN_POINT('Vertex',(-3.11626600093,5.70428665229,-1.8)) ;
#72=CARTESIAN_POINT('Axis2P3D Location',(0.,0.,-1.8)) ;
#76=CARTESIAN_POINT('Vertex',(6.48074069841,-0.5,-1.8)) ;
#79=CARTESIAN_POINT('Line Origine',(4.71939029498,-0.5,-1.8)) ;
#83=CARTESIAN_POINT('Vertex',(2.95803989155,-0.5,-1.8)) ;
#86=CARTESIAN_POINT('Axis2P3D Location',(0.,0.,-1.8)) ;
#90=CARTESIAN_POINT('Vertex',(3.,0.,-1.8)) ;
#93=CARTESIAN_POINT('Axis2P3D Location',(0.,0.,-1.8)) ;
#97=CARTESIAN_POINT('Vertex',(-3.,-3.67394039744E-016,-1.8)) ;
#100=CARTESIAN_POINT('Axis2P3D Location',(0.,0.,-1.8)) ;
#115=CARTESIAN_POINT('Axis2P3D Location',(0.,0.,-0.0679491924311)) ;
#120=CARTESIAN_POINT('Line Origine',(1.5,0.,-0.933974596216)) ;
#124=CARTESIAN_POINT('Vertex',(0.,0.,-0.0679491924311)) ;
#127=CARTESIAN_POINT('Axis2P3D Location',(0.,0.,-1.8)) ;
#132=CARTESIAN_POINT('Line Origine',(-1.5,-1.83697019872E-016,-0.933974596216)) ;
#151=CARTESIAN_POINT('Axis2P3D Location',(0.,-0.5,-1.8)) ;
#156=CARTESIAN_POINT('Line Origine',(2.95803989155,-0.5,-3.3)) ;
#160=CARTESIAN_POINT('Vertex',(2.95803989155,-0.5,-4.8)) ;
#163=CARTESIAN_POINT('Line Origine',(6.48074069841,-0.5,-3.3)) ;
#167=CARTESIAN_POINT('Vertex',(6.48074069841,-0.5,-4.8)) ;
#170=CARTESIAN_POINT('Line Origine',(4.71939029498,-0.5,-4.8)) ;
#182=CARTESIAN_POINT('Line Origine',(-2.95803989155,-0.5,-3.3)) ;
#186=CARTESIAN_POINT('Vertex',(-2.95803989155,-0.5,-4.8)) ;
#189=CARTESIAN_POINT('Line Origine',(-4.71939029498,-0.5,-4.8)) ;
#193=CARTESIAN_POINT('Vertex',(-6.48074069841,-0.5,-4.8)) ;
#196=CARTESIAN_POINT('Line Origine',(-6.48074069841,-0.5,-3.3)) ;
#208=CARTESIAN_POINT('Axis2P3D Location',(0.,0.,-7.2)) ;
#213=CARTESIAN_POINT('Axis2P3D Location',(0.,0.,-4.8)) ;
#217=CARTESIAN_POINT('Vertex',(-3.,3.67394039744E-016,-4.8)) ;
#219=CARTESIAN_POINT('Vertex',(3.,0.,-4.8)) ;
#222=CARTESIAN_POINT('Line Origine',(-3.,3.67394039744E-016,-4.65500000004)) ;
#226=CARTESIAN_POINT('Vertex',(-3.,3.67394039744E-016,-7.2)) ;
#229=CARTESIAN_POINT('Axis2P3D Location',(0.,0.,-7.2)) ;
#233=CARTESIAN_POINT('Vertex',(3.,0.,-7.2)) ;
#236=CARTESIAN_POINT('Line Origine',(3.,0.,-4.65500000004)) ;
#248=CARTESIAN_POINT('Axis2P3D Location',(0.,6.5,-7.)) ;
#253=CARTESIAN_POINT('Axis2P3D Location',(0.,0.,-7.)) ;
#257=CARTESIAN_POINT('Vertex',(-3.11626600093,5.70428665229,-7.)) ;
#259=CARTESIAN_POINT('Vertex',(3.11626600093,-5.70428665229,-7.)) ;
#262=CARTESIAN_POINT('Axis2P3D Location',(0.,0.,-7.)) ;
#271=CARTESIAN_POINT('Axis2P3D Location',(0.,0.,-7.)) ;
#275=CARTESIAN_POINT('Vertex',(2.15741492372,-3.94912152851,-7.)) ;
#277=CARTESIAN_POINT('Vertex',(-2.15741492372,3.94912152851,-7.)) ;
#280=CARTESIAN_POINT('Axis2P3D Location',(0.,0.,-7.)) ;
#290=CARTESIAN_POINT('Axis2P3D Location',(0.,0.,-2.69999999925)) ;
#295=CARTESIAN_POINT('Line Origine',(2.15741492372,-3.94912152851,-7.1)) ;
#299=CARTESIAN_POINT('Vertex',(2.15741492372,-3.94912152851,-7.2)) ;
#302=CARTESIAN_POINT('Line Origine',(-2.15741492372,3.94912152851,-7.1)) ;
#306=CARTESIAN_POINT('Vertex',(-2.15741492372,3.94912152851,-7.2)) ;
#309=CARTESIAN_POINT('Axis2P3D Location',(0.,0.,-7.2)) ;
#321=CARTESIAN_POINT('Axis2P3D Location',(0.,0.,-7.2)) ;
#333=CARTESIAN_POINT('Axis2P3D Location',(0.,2.22044604925E-016,1.8)) ;
#338=CARTESIAN_POINT('Axis2P3D Location',(-1.42293458121E-016,2.7540465172E-016,1.8)) ;
#342=CARTESIAN_POINT('Vertex',(1.48621916967,-2.72050594186,1.8)) ;
#344=CARTESIAN_POINT('Vertex',(-1.48621916967,2.72050594186,1.8)) ;
#347=CARTESIAN_POINT('Axis2P3D Location',(-1.42293458121E-016,2.7540465172E-016,1.8)) ;
#357=CARTESIAN_POINT('Axis2P3D Location',(-3.33066907388E-015,2.79776202206E-014,4.9)) ;
#362=CARTESIAN_POINT('Line Origine',(1.5101904466,-2.76438506995,1.75)) ;
#366=CARTESIAN_POINT('Vertex',(1.53416172353,-2.80826419805,1.7)) ;
#369=CARTESIAN_POINT('Axis2P3D Location',(2.22044604925E-016,-4.4408920985E-016,1.7)) ;
#373=CARTESIAN_POINT('Vertex',(-1.53416172353,2.80826419805,1.7)) ;
#376=CARTESIAN_POINT('Line Origine',(-1.5101904466,2.76438506995,1.75)) ;
#388=CARTESIAN_POINT('Axis2P3D Location',(6.66133814775E-015,-2.96221380758E-014,4.9)) ;
#393=CARTESIAN_POINT('Axis2P3D Location',(-4.4408920985E-016,3.538835891E-016,1.7)) ;
#405=CARTESIAN_POINT('Axis2P3D Location',(0.,0.,-2.69999999925)) ;
#410=CARTESIAN_POINT('Line Origine',(1.53416172353,-2.80826419805,0.9)) ;
#414=CARTESIAN_POINT('Vertex',(1.53416172353,-2.80826419805,0.)) ;
#417=CARTESIAN_POINT('Axis2P3D Location',(0.,0.,0.)) ;
#421=CARTESIAN_POINT('Vertex',(-1.53416172353,2.80826419805,0.)) ;
#424=CARTESIAN_POINT('Line Origine',(-1.53416172353,2.80826419805,0.9)) ;
#436=CARTESIAN_POINT('Axis2P3D Location',(0.,0.,0.)) ;
#448=CARTESIAN_POINT('Axis2P3D Location',(0.,3.2,0.)) ;
#453=CARTESIAN_POINT('Axis2P3D Location',(0.,0.,0.)) ;
#457=CARTESIAN_POINT('Vertex',(3.11626600093,-5.70428665229,0.)) ;
#459=CARTESIAN_POINT('Vertex',(-3.11626600093,5.70428665229,0.)) ;
#462=CARTESIAN_POINT('Axis2P3D Location',(0.,0.,0.)) ;
#476=CARTESIAN_POINT('Axis2P3D Location',(0.,0.,-7.2)) ;
#485=CARTESIAN_POINT('Axis2P3D Location',(0.,0.,-7.2)) ;
#495=CARTESIAN_POINT('Axis2P3D Location',(0.,0.,-4.8)) ;
#500=CARTESIAN_POINT('Axis2P3D Location',(0.,0.,-4.8)) ;
#516=CARTESIAN_POINT('Axis2P3D Location',(0.,0.,-2.69999999925)) ;
#521=CARTESIAN_POINT('Line Origine',(-3.11626600093,5.70428665229,-3.5)) ;
#525=CARTESIAN_POINT('Vertex',(-3.11626600093,5.70428665229,-4.8)) ;
#528=CARTESIAN_POINT('Line Origine',(3.11626600093,-5.70428665229,-3.5)) ;
#533=CARTESIAN_POINT('Line Origine',(-3.11626600093,5.70428665229,-3.5)) ;
#538=CARTESIAN_POINT('Axis2P3D Location',(0.,0.,-4.8)) ;
#554=CARTESIAN_POINT('Axis2P3D Location',(0.,0.,-4.8)) ;
#570=CARTESIAN_POINT('Axis2P3D Location',(0.,6.5,-4.8)) ;
#52=DIRECTION('Axis2P3D Direction',(0.,-0.,1.)) ;
#53=DIRECTION('Axis2P3D XDirection',(0.,1.,0.)) ;
#57=DIRECTION('Vector Direction',(-1.,0.,0.)) ;
#66=DIRECTION('Axis2P3D Direction',(0.,-0.,1.)) ;
#73=DIRECTION('Axis2P3D Direction',(0.,-0.,1.)) ;
#80=DIRECTION('Vector Direction',(-1.,0.,0.)) ;
#87=DIRECTION('Axis2P3D Direction',(0.,-0.,1.)) ;
#94=DIRECTION('Axis2P3D Direction',(0.,-0.,1.)) ;
#101=DIRECTION('Axis2P3D Direction',(0.,-0.,1.)) ;
#116=DIRECTION('Axis2P3D Direction',(0.,0.,-1.)) ;
#117=DIRECTION('Axis2P3D XDirection',(1.,0.,0.)) ;
#121=DIRECTION('Vector Direction',(0.866025403784,0.,-0.5)) ;
#128=DIRECTION('Axis2P3D Direction',(0.,0.,-1.)) ;
#133=DIRECTION('Vector Direction',(-0.866025403784,-1.06057523872E-016,-0.5)) ;
#152=DIRECTION('Axis2P3D Direction',(0.,1.,0.)) ;
#153=DIRECTION('Axis2P3D XDirection',(0.,0.,-1.)) ;
#157=DIRECTION('Vector Direction',(0.,0.,-1.)) ;
#164=DIRECTION('Vector Direction',(0.,0.,-1.)) ;
#171=DIRECTION('Vector Direction',(-1.,0.,0.)) ;
#183=DIRECTION('Vector Direction',(0.,0.,-1.)) ;
#190=DIRECTION('Vector Direction',(-1.,0.,0.)) ;
#197=DIRECTION('Vector Direction',(0.,0.,-1.)) ;
#209=DIRECTION('Axis2P3D Direction',(0.,-0.,1.)) ;
#210=DIRECTION('Axis2P3D XDirection',(1.,0.,0.)) ;
#214=DIRECTION('Axis2P3D Direction',(0.,-0.,1.)) ;
#223=DIRECTION('Vector Direction',(0.,0.,1.)) ;
#230=DIRECTION('Axis2P3D Direction',(0.,-0.,1.)) ;
#237=DIRECTION('Vector Direction',(0.,0.,1.)) ;
#249=DIRECTION('Axis2P3D Direction',(0.,0.,1.)) ;
#250=DIRECTION('Axis2P3D XDirection',(1.,0.,0.)) ;
#254=DIRECTION('Axis2P3D Direction',(0.,0.,1.)) ;
#263=DIRECTION('Axis2P3D Direction',(0.,0.,1.)) ;
#272=DIRECTION('Axis2P3D Direction',(0.,0.,1.)) ;
#281=DIRECTION('Axis2P3D Direction',(0.,0.,1.)) ;
#291=DIRECTION('Axis2P3D Direction',(0.,0.,1.)) ;
#292=DIRECTION('Axis2P3D XDirection',(-0.479425538604,0.87758256189,0.)) ;
#296=DIRECTION('Vector Direction',(0.,0.,1.)) ;
#303=DIRECTION('Vector Direction',(0.,0.,1.)) ;
#310=DIRECTION('Axis2P3D Direction',(0.,0.,1.)) ;
#322=DIRECTION('Axis2P3D Direction',(0.,0.,1.)) ;
#334=DIRECTION('Axis2P3D Direction',(0.,0.,1.)) ;
#335=DIRECTION('Axis2P3D XDirection',(1.,0.,0.)) ;
#339=DIRECTION('Axis2P3D Direction',(0.,0.,1.)) ;
#348=DIRECTION('Axis2P3D Direction',(0.,0.,1.)) ;
#358=DIRECTION('Axis2P3D Direction',(1.11022302463E-015,-8.881784197E-015,-1.)) ;
#359=DIRECTION('Axis2P3D XDirection',(-0.520296023213,-0.853985976599,6.98057178462E-015)) ;
#363=DIRECTION('Vector Direction',(0.339005049421,-0.620544580564,-0.707106781187)) ;
#370=DIRECTION('Axis2P3D Direction',(-4.7560800945E-015,2.89767001691E-015,1.)) ;
#377=DIRECTION('Vector Direction',(-0.339005049421,0.620544580564,-0.707106781187)) ;
#389=DIRECTION('Axis2P3D Direction',(-2.22044604925E-015,9.36750677027E-015,-1.)) ;
#390=DIRECTION('Axis2P3D XDirection',(-0.479425538604,0.87758256189,9.21962311176E-015)) ;
#394=DIRECTION('Axis2P3D Direction',(-2.23116348873E-015,-1.21889016914E-015,1.)) ;
#406=DIRECTION('Axis2P3D Direction',(0.,0.,1.)) ;
#407=DIRECTION('Axis2P3D XDirection',(-0.479425538604,0.87758256189,0.)) ;
#411=DIRECTION('Vector Direction',(0.,0.,1.)) ;
#418=DIRECTION('Axis2P3D Direction',(0.,0.,1.)) ;
#425=DIRECTION('Vector Direction',(0.,0.,1.)) ;
#437=DIRECTION('Axis2P3D Direction',(0.,0.,1.)) ;
#449=DIRECTION('Axis2P3D Direction',(0.,0.,1.)) ;
#450=DIRECTION('Axis2P3D XDirection',(1.,0.,0.)) ;
#454=DIRECTION('Axis2P3D Direction',(0.,0.,1.)) ;
#463=DIRECTION('Axis2P3D Direction',(0.,0.,1.)) ;
#477=DIRECTION('Axis2P3D Direction',(0.,0.,1.)) ;
#478=DIRECTION('Axis2P3D XDirection',(1.,0.,0.)) ;
#486=DIRECTION('Axis2P3D Direction',(0.,0.,1.)) ;
#496=DIRECTION('Axis2P3D Direction',(0.,-0.,1.)) ;
#501=DIRECTION('Axis2P3D Direction',(0.,-0.,1.)) ;
#517=DIRECTION('Axis2P3D Direction',(0.,0.,1.)) ;
#518=DIRECTION('Axis2P3D XDirection',(-0.479425538604,0.87758256189,0.)) ;
#522=DIRECTION('Vector Direction',(0.,0.,1.)) ;
#529=DIRECTION('Vector Direction',(0.,0.,1.)) ;
#534=DIRECTION('Vector Direction',(0.,0.,1.)) ;
#539=DIRECTION('Axis2P3D Direction',(0.,0.,1.)) ;
#555=DIRECTION('Axis2P3D Direction',(0.,0.,1.)) ;
#571=DIRECTION('Axis2P3D Direction',(-0.,-0.,-1.)) ;
#572=DIRECTION('Axis2P3D XDirection',(0.,-1.,0.)) ;
#47=AXIS2_PLACEMENT_3D(' ',#46,$,$) ;
#54=AXIS2_PLACEMENT_3D('Plane Axis2P3D',#51,#52,#53) ;
#67=AXIS2_PLACEMENT_3D('Circle Axis2P3D',#65,#66,$) ;
#74=AXIS2_PLACEMENT_3D('Circle Axis2P3D',#72,#73,$) ;
#88=AXIS2_PLACEMENT_3D('Circle Axis2P3D',#86,#87,$) ;
#95=AXIS2_PLACEMENT_3D('Circle Axis2P3D',#93,#94,$) ;
#102=AXIS2_PLACEMENT_3D('Circle Axis2P3D',#100,#101,$) ;
#118=AXIS2_PLACEMENT_3D('Cone Axis2P3D',#115,#116,#117) ;
#129=AXIS2_PLACEMENT_3D('Circle Axis2P3D',#127,#128,$) ;
#154=AXIS2_PLACEMENT_3D('Plane Axis2P3D',#151,#152,#153) ;
#211=AXIS2_PLACEMENT_3D('Cylinder Axis2P3D',#208,#209,#210) ;
#215=AXIS2_PLACEMENT_3D('Circle Axis2P3D',#213,#214,$) ;
#231=AXIS2_PLACEMENT_3D('Circle Axis2P3D',#229,#230,$) ;
#251=AXIS2_PLACEMENT_3D('Plane Axis2P3D',#248,#249,#250) ;
#255=AXIS2_PLACEMENT_3D('Circle Axis2P3D',#253,#254,$) ;
#264=AXIS2_PLACEMENT_3D('Circle Axis2P3D',#262,#263,$) ;
#273=AXIS2_PLACEMENT_3D('Circle Axis2P3D',#271,#272,$) ;
#282=AXIS2_PLACEMENT_3D('Circle Axis2P3D',#280,#281,$) ;
#293=AXIS2_PLACEMENT_3D('Cylinder Axis2P3D',#290,#291,#292) ;
#311=AXIS2_PLACEMENT_3D('Circle Axis2P3D',#309,#310,$) ;
#323=AXIS2_PLACEMENT_3D('Circle Axis2P3D',#321,#322,$) ;
#336=AXIS2_PLACEMENT_3D('Plane Axis2P3D',#333,#334,#335) ;
#340=AXIS2_PLACEMENT_3D('Circle Axis2P3D',#338,#339,$) ;
#349=AXIS2_PLACEMENT_3D('Circle Axis2P3D',#347,#348,$) ;
#360=AXIS2_PLACEMENT_3D('Cone Axis2P3D',#357,#358,#359) ;
#371=AXIS2_PLACEMENT_3D('Circle Axis2P3D',#369,#370,$) ;
#391=AXIS2_PLACEMENT_3D('Cone Axis2P3D',#388,#389,#390) ;
#395=AXIS2_PLACEMENT_3D('Circle Axis2P3D',#393,#394,$) ;
#408=AXIS2_PLACEMENT_3D('Cylinder Axis2P3D',#405,#406,#407) ;
#419=AXIS2_PLACEMENT_3D('Circle Axis2P3D',#417,#418,$) ;
#438=AXIS2_PLACEMENT_3D('Circle Axis2P3D',#436,#437,$) ;
#451=AXIS2_PLACEMENT_3D('Plane Axis2P3D',#448,#449,#450) ;
#455=AXIS2_PLACEMENT_3D('Circle Axis2P3D',#453,#454,$) ;
#464=AXIS2_PLACEMENT_3D('Circle Axis2P3D',#462,#463,$) ;
#479=AXIS2_PLACEMENT_3D('Plane Axis2P3D',#476,#477,#478) ;
#487=AXIS2_PLACEMENT_3D('Circle Axis2P3D',#485,#486,$) ;
#497=AXIS2_PLACEMENT_3D('Circle Axis2P3D',#495,#496,$) ;
#502=AXIS2_PLACEMENT_3D('Circle Axis2P3D',#500,#501,$) ;
#519=AXIS2_PLACEMENT_3D('Cylinder Axis2P3D',#516,#517,#518) ;
#540=AXIS2_PLACEMENT_3D('Circle Axis2P3D',#538,#539,$) ;
#556=AXIS2_PLACEMENT_3D('Circle Axis2P3D',#554,#555,$) ;
#573=AXIS2_PLACEMENT_3D('Plane Axis2P3D',#570,#571,#572) ;
#40=PRODUCT_DEFINITION_SHAPE(' ',' ',#14) ;
#31=APPROVAL_PERSON_ORGANIZATION(#25,#21,#19) ;
#25=PERSON_AND_ORGANIZATION(#22,#23) ;
#22=PERSON(' ',' ',' ',$,$,$) ;
#23=ORGANIZATION(' ',' ',' ') ;
#21=APPROVAL(#20,' ') ;
#20=APPROVAL_STATUS('not_yet_approved') ;
#19=APPROVAL_ROLE('APPROVER') ;
#13=DATE_AND_TIME(#11,#12) ;
#12=LOCAL_TIME(12,36,18.,#10) ;
#10=COORDINATED_UNIVERSAL_TIME_OFFSET(0,0,.AHEAD.) ;
#106=ORIENTED_EDGE('',*,*,#64,.T.) ;
#107=ORIENTED_EDGE('',*,*,#71,.F.) ;
#108=ORIENTED_EDGE('',*,*,#78,.F.) ;
#109=ORIENTED_EDGE('',*,*,#85,.T.) ;
#110=ORIENTED_EDGE('',*,*,#92,.T.) ;
#111=ORIENTED_EDGE('',*,*,#99,.T.) ;
#112=ORIENTED_EDGE('',*,*,#104,.T.) ;
#138=ORIENTED_EDGE('',*,*,#126,.T.) ;
#139=ORIENTED_EDGE('',*,*,#92,.F.) ;
#140=ORIENTED_EDGE('',*,*,#131,.F.) ;
#141=ORIENTED_EDGE('',*,*,#104,.F.) ;
#142=ORIENTED_EDGE('',*,*,#136,.F.) ;
#146=ORIENTED_EDGE('',*,*,#136,.T.) ;
#147=ORIENTED_EDGE('',*,*,#99,.F.) ;
#148=ORIENTED_EDGE('',*,*,#126,.F.) ;
#176=ORIENTED_EDGE('',*,*,#162,.F.) ;
#177=ORIENTED_EDGE('',*,*,#85,.F.) ;
#178=ORIENTED_EDGE('',*,*,#169,.T.) ;
#179=ORIENTED_EDGE('',*,*,#174,.T.) ;
#202=ORIENTED_EDGE('',*,*,#188,.T.) ;
#203=ORIENTED_EDGE('',*,*,#195,.T.) ;
#204=ORIENTED_EDGE('',*,*,#200,.F.) ;
#205=ORIENTED_EDGE('',*,*,#64,.F.) ;
#242=ORIENTED_EDGE('',*,*,#221,.F.) ;
#243=ORIENTED_EDGE('',*,*,#228,.T.) ;
#244=ORIENTED_EDGE('',*,*,#235,.F.) ;
#245=ORIENTED_EDGE('',*,*,#240,.F.) ;
#268=ORIENTED_EDGE('',*,*,#261,.F.) ;
#269=ORIENTED_EDGE('',*,*,#266,.F.) ;
#286=ORIENTED_EDGE('',*,*,#279,.T.) ;
#287=ORIENTED_EDGE('',*,*,#284,.T.) ;
#315=ORIENTED_EDGE('',*,*,#301,.T.) ;
#316=ORIENTED_EDGE('',*,*,#284,.F.) ;
#317=ORIENTED_EDGE('',*,*,#308,.F.) ;
#318=ORIENTED_EDGE('',*,*,#313,.T.) ;
#327=ORIENTED_EDGE('',*,*,#308,.T.) ;
#328=ORIENTED_EDGE('',*,*,#279,.F.) ;
#329=ORIENTED_EDGE('',*,*,#301,.F.) ;
#330=ORIENTED_EDGE('',*,*,#325,.T.) ;
#353=ORIENTED_EDGE('',*,*,#346,.T.) ;
#354=ORIENTED_EDGE('',*,*,#351,.T.) ;
#382=ORIENTED_EDGE('',*,*,#368,.T.) ;
#383=ORIENTED_EDGE('',*,*,#375,.T.) ;
#384=ORIENTED_EDGE('',*,*,#380,.F.) ;
#385=ORIENTED_EDGE('',*,*,#346,.F.) ;
#399=ORIENTED_EDGE('',*,*,#380,.T.) ;
#400=ORIENTED_EDGE('',*,*,#397,.T.) ;
#401=ORIENTED_EDGE('',*,*,#368,.F.) ;
#402=ORIENTED_EDGE('',*,*,#351,.F.) ;
#430=ORIENTED_EDGE('',*,*,#416,.F.) ;
#431=ORIENTED_EDGE('',*,*,#423,.T.) ;
#432=ORIENTED_EDGE('',*,*,#428,.T.) ;
#433=ORIENTED_EDGE('',*,*,#375,.F.) ;
#442=ORIENTED_EDGE('',*,*,#428,.F.) ;
#443=ORIENTED_EDGE('',*,*,#440,.T.) ;
#444=ORIENTED_EDGE('',*,*,#416,.T.) ;
#445=ORIENTED_EDGE('',*,*,#397,.F.) ;
#468=ORIENTED_EDGE('',*,*,#461,.T.) ;
#469=ORIENTED_EDGE('',*,*,#466,.T.) ;
#472=ORIENTED_EDGE('',*,*,#440,.F.) ;
#473=ORIENTED_EDGE('',*,*,#423,.F.) ;
#482=ORIENTED_EDGE('',*,*,#325,.F.) ;
#483=ORIENTED_EDGE('',*,*,#313,.F.) ;
#491=ORIENTED_EDGE('',*,*,#489,.T.) ;
#492=ORIENTED_EDGE('',*,*,#235,.T.) ;
#506=ORIENTED_EDGE('',*,*,#162,.T.) ;
#507=ORIENTED_EDGE('',*,*,#499,.F.) ;
#508=ORIENTED_EDGE('',*,*,#240,.T.) ;
#509=ORIENTED_EDGE('',*,*,#489,.F.) ;
#510=ORIENTED_EDGE('',*,*,#228,.F.) ;
#511=ORIENTED_EDGE('',*,*,#504,.F.) ;
#512=ORIENTED_EDGE('',*,*,#188,.F.) ;
#513=ORIENTED_EDGE('',*,*,#131,.T.) ;
#544=ORIENTED_EDGE('',*,*,#527,.F.) ;
#545=ORIENTED_EDGE('',*,*,#261,.T.) ;
#546=ORIENTED_EDGE('',*,*,#532,.T.) ;
#547=ORIENTED_EDGE('',*,*,#466,.F.) ;
#548=ORIENTED_EDGE('',*,*,#537,.F.) ;
#549=ORIENTED_EDGE('',*,*,#71,.T.) ;
#550=ORIENTED_EDGE('',*,*,#200,.T.) ;
#551=ORIENTED_EDGE('',*,*,#542,.T.) ;
#560=ORIENTED_EDGE('',*,*,#537,.T.) ;
#561=ORIENTED_EDGE('',*,*,#461,.F.) ;
#562=ORIENTED_EDGE('',*,*,#532,.F.) ;
#563=ORIENTED_EDGE('',*,*,#266,.T.) ;
#564=ORIENTED_EDGE('',*,*,#527,.T.) ;
#565=ORIENTED_EDGE('',*,*,#558,.T.) ;
#566=ORIENTED_EDGE('',*,*,#169,.F.) ;
#567=ORIENTED_EDGE('',*,*,#78,.T.) ;
#576=ORIENTED_EDGE('',*,*,#558,.F.) ;
#577=ORIENTED_EDGE('',*,*,#542,.F.) ;
#578=ORIENTED_EDGE('',*,*,#195,.F.) ;
#579=ORIENTED_EDGE('',*,*,#504,.T.) ;
#580=ORIENTED_EDGE('',*,*,#221,.T.) ;
#581=ORIENTED_EDGE('',*,*,#499,.T.) ;
#582=ORIENTED_EDGE('',*,*,#174,.F.) ;
#288=FACE_BOUND('',#285,.T.) ;
#474=FACE_BOUND('',#471,.T.) ;
#493=FACE_BOUND('',#490,.T.) ;
#50=CLOSED_SHELL('Closed Shell',(#114,#144,#150,#181,#207,#247,#289,#320,#332,#356,#387,#404,#435,#447,#475,#494,#515,#553,#569,#584)) ;
#58=VECTOR('Line Direction',#57,1.) ;
#81=VECTOR('Line Direction',#80,1.) ;
#122=VECTOR('Line Direction',#121,1.) ;
#134=VECTOR('Line Direction',#133,1.) ;
#158=VECTOR('Line Direction',#157,1.) ;
#165=VECTOR('Line Direction',#164,1.) ;
#172=VECTOR('Line Direction',#171,1.) ;
#184=VECTOR('Line Direction',#183,1.) ;
#191=VECTOR('Line Direction',#190,1.) ;
#198=VECTOR('Line Direction',#197,1.) ;
#224=VECTOR('Line Direction',#223,1.) ;
#238=VECTOR('Line Direction',#237,1.) ;
#297=VECTOR('Line Direction',#296,1.) ;
#304=VECTOR('Line Direction',#303,1.) ;
#364=VECTOR('Line Direction',#363,1.) ;
#378=VECTOR('Line Direction',#377,1.) ;
#412=VECTOR('Line Direction',#411,1.) ;
#426=VECTOR('Line Direction',#425,1.) ;
#523=VECTOR('Line Direction',#522,1.) ;
#530=VECTOR('Line Direction',#529,1.) ;
#535=VECTOR('Line Direction',#534,1.) ;
#586=ADVANCED_BREP_SHAPE_REPRESENTATION('NONE',(#585),#45) ;
#48=SHAPE_REPRESENTATION(' ',(#47),#45) ;
#114=ADVANCED_FACE('Corps principal',(#113),#55,.F.) ;
#144=ADVANCED_FACE('Corps principal',(#143),#119,.F.) ;
#150=ADVANCED_FACE('Corps principal',(#149),#119,.F.) ;
#181=ADVANCED_FACE('Corps principal',(#180),#155,.T.) ;
#207=ADVANCED_FACE('Corps principal',(#206),#155,.T.) ;
#247=ADVANCED_FACE('Corps principal',(#246),#212,.F.) ;
#289=ADVANCED_FACE('Corps principal',(#270,#288),#252,.F.) ;
#320=ADVANCED_FACE('Corps principal',(#319),#294,.T.) ;
#332=ADVANCED_FACE('Corps principal',(#331),#294,.T.) ;
#356=ADVANCED_FACE('Corps principal',(#355),#337,.T.) ;
#387=ADVANCED_FACE('Corps principal',(#386),#361,.T.) ;
#404=ADVANCED_FACE('Corps principal',(#403),#392,.T.) ;
#435=ADVANCED_FACE('Corps principal',(#434),#409,.T.) ;
#447=ADVANCED_FACE('Corps principal',(#446),#409,.T.) ;
#475=ADVANCED_FACE('Corps principal',(#470,#474),#452,.T.) ;
#494=ADVANCED_FACE('Corps principal',(#484,#493),#480,.F.) ;
#515=ADVANCED_FACE('Corps principal',(#514),#212,.F.) ;
#553=ADVANCED_FACE('Corps principal',(#552),#520,.T.) ;
#569=ADVANCED_FACE('Corps principal',(#568),#520,.T.) ;
#584=ADVANCED_FACE('Corps principal',(#583),#574,.F.) ;
#4=APPLICATION_PROTOCOL_DEFINITION('international standard','config_control_design',1994,#1) ;
#32=APPROVAL_DATE_TIME(#13,#21) ;
#585=MANIFOLD_SOLID_BREP('Corps principal',#50) ;
#11=CALENDAR_DATE(2020,26,11) ;
#30=CC_DESIGN_APPROVAL(#21,(#16,#6,#14)) ;
#18=CC_DESIGN_DATE_AND_TIME_ASSIGNMENT(#13,#17,(#16)) ;
#29=CC_DESIGN_DATE_AND_TIME_ASSIGNMENT(#13,#28,(#14)) ;
#17=DATE_TIME_ROLE('classification_date') ;
#28=DATE_TIME_ROLE('creation_date') ;
#27=CC_DESIGN_PERSON_AND_ORGANIZATION_ASSIGNMENT(#25,#26,(#16)) ;
#33=CC_DESIGN_PERSON_AND_ORGANIZATION_ASSIGNMENT(#25,#34,(#6)) ;
#35=CC_DESIGN_PERSON_AND_ORGANIZATION_ASSIGNMENT(#25,#36,(#6,#14)) ;
#37=CC_DESIGN_PERSON_AND_ORGANIZATION_ASSIGNMENT(#25,#38,(#5)) ;
#26=PERSON_AND_ORGANIZATION_ROLE('classification_officer') ;
#34=PERSON_AND_ORGANIZATION_ROLE('design_supplier') ;
#36=PERSON_AND_ORGANIZATION_ROLE('creator') ;
#38=PERSON_AND_ORGANIZATION_ROLE('design_owner') ;
#39=CC_DESIGN_SECURITY_CLASSIFICATION(#16,(#6)) ;
#68=CIRCLE('generated circle',#67,6.5) ;
#75=CIRCLE('generated circle',#74,6.5) ;
#89=CIRCLE('generated circle',#88,3.) ;
#96=CIRCLE('generated circle',#95,3.) ;
#103=CIRCLE('generated circle',#102,3.) ;
#130=CIRCLE('generated circle',#129,3.) ;
#216=CIRCLE('generated circle',#215,3.) ;
#232=CIRCLE('generated circle',#231,3.) ;
#256=CIRCLE('generated circle',#255,6.5) ;
#265=CIRCLE('generated circle',#264,6.5) ;
#274=CIRCLE('generated circle',#273,4.5) ;
#283=CIRCLE('generated circle',#282,4.5) ;
#312=CIRCLE('generated circle',#311,4.5) ;
#324=CIRCLE('generated circle',#323,4.5) ;
#341=CIRCLE('generated circle',#340,3.1) ;
#350=CIRCLE('generated circle',#349,3.1) ;
#372=CIRCLE('generated circle',#371,3.2) ;
#396=CIRCLE('generated circle',#395,3.2) ;
#420=CIRCLE('generated circle',#419,3.2) ;
#439=CIRCLE('generated circle',#438,3.2) ;
#456=CIRCLE('generated circle',#455,6.5) ;
#465=CIRCLE('generated circle',#464,6.5) ;
#488=CIRCLE('generated circle',#487,3.) ;
#498=CIRCLE('generated circle',#497,3.) ;
#503=CIRCLE('generated circle',#502,3.) ;
#541=CIRCLE('generated circle',#540,6.5) ;
#557=CIRCLE('generated circle',#556,6.5) ;
#119=CONICAL_SURFACE('Cone',#118,0.,1.0471975512) ;
#361=CONICAL_SURFACE('Cone',#360,0.,0.785398163397) ;
#392=CONICAL_SURFACE('Cone',#391,0.,0.785398163397) ;
#587=SHAPE_REPRESENTATION_RELATIONSHIP(' ',' ',#48,#586) ;
#212=CYLINDRICAL_SURFACE('generated cylinder',#211,3.) ;
#294=CYLINDRICAL_SURFACE('generated cylinder',#293,4.5) ;
#409=CYLINDRICAL_SURFACE('generated cylinder',#408,3.2) ;
#520=CYLINDRICAL_SURFACE('generated cylinder',#519,6.5) ;
#3=DESIGN_CONTEXT(' ',#1,'design') ;
#64=EDGE_CURVE('',#61,#63,#59,.T.) ;
#71=EDGE_CURVE('',#70,#63,#68,.T.) ;
#78=EDGE_CURVE('',#77,#70,#75,.T.) ;
#85=EDGE_CURVE('',#77,#84,#82,.T.) ;
#92=EDGE_CURVE('',#84,#91,#89,.T.) ;
#99=EDGE_CURVE('',#91,#98,#96,.T.) ;
#104=EDGE_CURVE('',#98,#61,#103,.T.) ;
#126=EDGE_CURVE('',#125,#91,#123,.T.) ;
#131=EDGE_CURVE('',#61,#84,#130,.F.) ;
#136=EDGE_CURVE('',#125,#98,#135,.T.) ;
#162=EDGE_CURVE('',#84,#161,#159,.T.) ;
#169=EDGE_CURVE('',#77,#168,#166,.T.) ;
#174=EDGE_CURVE('',#168,#161,#173,.T.) ;
#188=EDGE_CURVE('',#61,#187,#185,.T.) ;
#195=EDGE_CURVE('',#187,#194,#192,.T.) ;
#200=EDGE_CURVE('',#63,#194,#199,.T.) ;
#221=EDGE_CURVE('',#218,#220,#216,.F.) ;
#228=EDGE_CURVE('',#218,#227,#225,.F.) ;
#235=EDGE_CURVE('',#234,#227,#232,.T.) ;
#240=EDGE_CURVE('',#220,#234,#239,.F.) ;
#261=EDGE_CURVE('',#258,#260,#256,.T.) ;
#266=EDGE_CURVE('',#260,#258,#265,.T.) ;
#279=EDGE_CURVE('',#276,#278,#274,.T.) ;
#284=EDGE_CURVE('',#278,#276,#283,.T.) ;
#301=EDGE_CURVE('',#300,#276,#298,.T.) ;
#308=EDGE_CURVE('',#307,#278,#305,.T.) ;
#313=EDGE_CURVE('',#307,#300,#312,.T.) ;
#325=EDGE_CURVE('',#300,#307,#324,.T.) ;
#346=EDGE_CURVE('',#343,#345,#341,.T.) ;
#351=EDGE_CURVE('',#345,#343,#350,.T.) ;
#368=EDGE_CURVE('',#343,#367,#365,.T.) ;
#375=EDGE_CURVE('',#367,#374,#372,.T.) ;
#380=EDGE_CURVE('',#345,#374,#379,.T.) ;
#397=EDGE_CURVE('',#374,#367,#396,.T.) ;
#416=EDGE_CURVE('',#415,#367,#413,.T.) ;
#423=EDGE_CURVE('',#415,#422,#420,.T.) ;
#428=EDGE_CURVE('',#422,#374,#427,.T.) ;
#440=EDGE_CURVE('',#422,#415,#439,.T.) ;
#461=EDGE_CURVE('',#458,#460,#456,.T.) ;
#466=EDGE_CURVE('',#460,#458,#465,.T.) ;
#489=EDGE_CURVE('',#227,#234,#488,.T.) ;
#499=EDGE_CURVE('',#220,#161,#498,.F.) ;
#504=EDGE_CURVE('',#187,#218,#503,.F.) ;
#527=EDGE_CURVE('',#258,#526,#524,.T.) ;
#532=EDGE_CURVE('',#260,#458,#531,.T.) ;
#537=EDGE_CURVE('',#70,#460,#536,.T.) ;
#542=EDGE_CURVE('',#194,#526,#541,.F.) ;
#558=EDGE_CURVE('',#526,#168,#557,.F.) ;
#105=EDGE_LOOP('',(#106,#107,#108,#109,#110,#111,#112)) ;
#137=EDGE_LOOP('',(#138,#139,#140,#141,#142)) ;
#145=EDGE_LOOP('',(#146,#147,#148)) ;
#175=EDGE_LOOP('',(#176,#177,#178,#179)) ;
#201=EDGE_LOOP('',(#202,#203,#204,#205)) ;
#241=EDGE_LOOP('',(#242,#243,#244,#245)) ;
#267=EDGE_LOOP('',(#268,#269)) ;
#285=EDGE_LOOP('',(#286,#287)) ;
#314=EDGE_LOOP('',(#315,#316,#317,#318)) ;
#326=EDGE_LOOP('',(#327,#328,#329,#330)) ;
#352=EDGE_LOOP('',(#353,#354)) ;
#381=EDGE_LOOP('',(#382,#383,#384,#385)) ;
#398=EDGE_LOOP('',(#399,#400,#401,#402)) ;
#429=EDGE_LOOP('',(#430,#431,#432,#433)) ;
#441=EDGE_LOOP('',(#442,#443,#444,#445)) ;
#467=EDGE_LOOP('',(#468,#469)) ;
#471=EDGE_LOOP('',(#472,#473)) ;
#481=EDGE_LOOP('',(#482,#483)) ;
#490=EDGE_LOOP('',(#491,#492)) ;
#505=EDGE_LOOP('',(#506,#507,#508,#509,#510,#511,#512,#513)) ;
#543=EDGE_LOOP('',(#544,#545,#546,#547,#548,#549,#550,#551)) ;
#559=EDGE_LOOP('',(#560,#561,#562,#563,#564,#565,#566,#567)) ;
#575=EDGE_LOOP('',(#576,#577,#578,#579,#580,#581,#582)) ;
#113=FACE_OUTER_BOUND('',#105,.T.) ;
#143=FACE_OUTER_BOUND('',#137,.T.) ;
#149=FACE_OUTER_BOUND('',#145,.T.) ;
#180=FACE_OUTER_BOUND('',#175,.T.) ;
#206=FACE_OUTER_BOUND('',#201,.T.) ;
#246=FACE_OUTER_BOUND('',#241,.T.) ;
#270=FACE_OUTER_BOUND('',#267,.T.) ;
#319=FACE_OUTER_BOUND('',#314,.T.) ;
#331=FACE_OUTER_BOUND('',#326,.T.) ;
#355=FACE_OUTER_BOUND('',#352,.T.) ;
#386=FACE_OUTER_BOUND('',#381,.T.) ;
#403=FACE_OUTER_BOUND('',#398,.T.) ;
#434=FACE_OUTER_BOUND('',#429,.T.) ;
#446=FACE_OUTER_BOUND('',#441,.T.) ;
#470=FACE_OUTER_BOUND('',#467,.T.) ;
#484=FACE_OUTER_BOUND('',#481,.T.) ;
#514=FACE_OUTER_BOUND('',#505,.T.) ;
#552=FACE_OUTER_BOUND('',#543,.T.) ;
#568=FACE_OUTER_BOUND('',#559,.T.) ;
#583=FACE_OUTER_BOUND('',#575,.T.) ;
#44=UNCERTAINTY_MEASURE_WITH_UNIT(LENGTH_MEASURE(0.005),#41,'distance_accuracy_value','CONFUSED CURVE UNCERTAINTY') ;
#59=LINE('Line',#56,#58) ;
#82=LINE('Line',#79,#81) ;
#123=LINE('Line',#120,#122) ;
#135=LINE('Line',#132,#134) ;
#159=LINE('Line',#156,#158) ;
#166=LINE('Line',#163,#165) ;
#173=LINE('Line',#170,#172) ;
#185=LINE('Line',#182,#184) ;
#192=LINE('Line',#189,#191) ;
#199=LINE('Line',#196,#198) ;
#225=LINE('Line',#222,#224) ;
#239=LINE('Line',#236,#238) ;
#298=LINE('Line',#295,#297) ;
#305=LINE('Line',#302,#304) ;
#365=LINE('Line',#362,#364) ;
#379=LINE('Line',#376,#378) ;
#413=LINE('Line',#410,#412) ;
#427=LINE('Line',#424,#426) ;
#524=LINE('Line',#521,#523) ;
#531=LINE('Line',#528,#530) ;
#536=LINE('Line',#533,#535) ;
#2=MECHANICAL_CONTEXT(' ',#1,'mechanical') ;
#24=PERSONAL_ADDRESS(' ',' ',' ',' ',' ',' ',' ',' ',' ',' ',' ',' ',(#22),' ') ;
#55=PLANE('',#54) ;
#155=PLANE('',#154) ;
#252=PLANE('',#251) ;
#337=PLANE('',#336) ;
#452=PLANE('',#451) ;
#480=PLANE('',#479) ;
#574=PLANE('',#573) ;
#7=PRODUCT_CATEGORY('part',$) ;
#9=PRODUCT_CATEGORY_RELATIONSHIP(' ',' ',#7,#8) ;
#6=PRODUCT_DEFINITION_FORMATION_WITH_SPECIFIED_SOURCE('1',' ',#5,.MADE.) ;
#8=PRODUCT_RELATED_PRODUCT_CATEGORY('detail',$,(#5)) ;
#49=SHAPE_DEFINITION_REPRESENTATION(#40,#48) ;
#61=VERTEX_POINT('',#60) ;
#63=VERTEX_POINT('',#62) ;
#70=VERTEX_POINT('',#69) ;
#77=VERTEX_POINT('',#76) ;
#84=VERTEX_POINT('',#83) ;
#91=VERTEX_POINT('',#90) ;
#98=VERTEX_POINT('',#97) ;
#125=VERTEX_POINT('',#124) ;
#161=VERTEX_POINT('',#160) ;
#168=VERTEX_POINT('',#167) ;
#187=VERTEX_POINT('',#186) ;
#194=VERTEX_POINT('',#193) ;
#218=VERTEX_POINT('',#217) ;
#220=VERTEX_POINT('',#219) ;
#227=VERTEX_POINT('',#226) ;
#234=VERTEX_POINT('',#233) ;
#258=VERTEX_POINT('',#257) ;
#260=VERTEX_POINT('',#259) ;
#276=VERTEX_POINT('',#275) ;
#278=VERTEX_POINT('',#277) ;
#300=VERTEX_POINT('',#299) ;
#307=VERTEX_POINT('',#306) ;
#343=VERTEX_POINT('',#342) ;
#345=VERTEX_POINT('',#344) ;
#367=VERTEX_POINT('',#366) ;
#374=VERTEX_POINT('',#373) ;
#415=VERTEX_POINT('',#414) ;
#422=VERTEX_POINT('',#421) ;
#458=VERTEX_POINT('',#457) ;
#460=VERTEX_POINT('',#459) ;
#526=VERTEX_POINT('',#525) ;
#41=(LENGTH_UNIT()NAMED_UNIT(*)SI_UNIT(.MILLI.,.METRE.)) ;
#42=(NAMED_UNIT(*)PLANE_ANGLE_UNIT()SI_UNIT($,.RADIAN.)) ;
#43=(NAMED_UNIT(*)SI_UNIT($,.STERADIAN.)SOLID_ANGLE_UNIT()) ;
#45=(GEOMETRIC_REPRESENTATION_CONTEXT(3)GLOBAL_UNCERTAINTY_ASSIGNED_CONTEXT((#44))GLOBAL_UNIT_ASSIGNED_CONTEXT((#41,#42,#43))REPRESENTATION_CONTEXT(' ',' ')) ;
ENDSEC;
END-ISO-10303-21;
