ISO-10303-21;
HEADER;

/* File generated by Shapr3D Version 3.0 */

FILE_DESCRIPTION(('HOOPS Exchange Step'),'2;1');

FILE_NAME('/private/var/mobile/Containers/Data/Application/27846B57-8B49-44E1-BDDF-7DFC426027F9/tmp/export/temp_export',
'2020-11-26T10:32:11+01:00',
('mobile'),
('Shapr3D Limited'),
'HOOPS Exchange 2020.2',
'Shapr3D',
'Authorized');

FILE_SCHEMA( ('AP203_CONFIGURATION_CONTROLLED_3D_DESIGN_OF_MECHANICAL_PARTS_AND_ASSEMBLIES_MIM_LF') );

ENDSEC;

DATA;
#3=(NAMED_UNIT(*)PLANE_ANGLE_UNIT()SI_UNIT($,.RADIAN.));
#4=PLANE_ANGLE_MEASURE_WITH_UNIT(PLANE_ANGLE_MEASURE(0.0174532925),#3);
#5=(CONVERSION_BASED_UNIT('DEGREE',#4)NAMED_UNIT(#6)PLANE_ANGLE_UNIT());
#6=DIMENSIONAL_EXPONENTS(0.,0.,0.,0.,0.,0.,0.);
#7=(NAMED_UNIT(*)SI_UNIT($,.STERADIAN.)SOLID_ANGLE_UNIT());
#8=(LENGTH_UNIT()NAMED_UNIT(*)SI_UNIT(.MILLI.,.METRE.));
#9=UNCERTAINTY_MEASURE_WITH_UNIT(LENGTH_MEASURE(1.000000E-05),#8,'DISTANCE_ACCURACY_VALUE','Maximum Tolerance applied to model');
#10=(GEOMETRIC_REPRESENTATION_CONTEXT(3)GLOBAL_UNCERTAINTY_ASSIGNED_CONTEXT((#9))GLOBAL_UNIT_ASSIGNED_CONTEXT((#8,#5,#7))REPRESENTATION_CONTEXT('','/var/mobile/Containers/Data/Application/27846B57-8B49-44E1-BDDF-7DFC426027F9/Documents/6A4B3169-47CF-4B28-AE78-19600EE814B4.tmp'));
#12=CARTESIAN_POINT('',(0.,0.,0.));
#13=DIRECTION('',(0.,0.,1.));
#14=DIRECTION('',(1.,0.,0.));
#15=AXIS2_PLACEMENT_3D('',#12,#13,#14);
#27=CARTESIAN_POINT('',(2.5,29.018990695,24.993747473));
#28=DIRECTION('',(1.,0.,-0.));
#29=DIRECTION('',(0.,0.,1.));
#30=AXIS2_PLACEMENT_3D('',#27,#28,#29);
#31=CYLINDRICAL_SURFACE('',#30,1.);
#32=CARTESIAN_POINT('',(22.5,29.018990695,25.993747473));
#33=VERTEX_POINT('',#32);
#34=CARTESIAN_POINT('',(14.5,29.018990695,25.993747473));
#35=VERTEX_POINT('',#34);
#36=CARTESIAN_POINT('',(22.5,29.018990695,25.993747473));
#37=DIRECTION('',(-1.,-0.,-0.));
#38=VECTOR('',#37,8.);
#39=LINE('',#36,#38);
#40=EDGE_CURVE('',#33,#35,#39,.T.);
#41=ORIENTED_EDGE('',*,*,#40,.F.);
#42=CARTESIAN_POINT('',(22.5,29.018990695,23.993747473));
#43=VERTEX_POINT('',#42);
#44=CARTESIAN_POINT('',(22.5,29.018990695,24.993747473));
#45=DIRECTION('',(1.,0.,0.));
#46=DIRECTION('',(0.,0.,-1.));
#47=AXIS2_PLACEMENT_3D('',#44,#45,#46);
#48=CIRCLE('',#47,1.);
#49=EDGE_CURVE('',#33,#43,#48,.T.);
#50=ORIENTED_EDGE('',*,*,#49,.T.);
#51=CARTESIAN_POINT('',(22.5,29.018990695,24.993747473));
#52=DIRECTION('',(1.,0.,0.));
#53=DIRECTION('',(0.,0.,-1.));
#54=AXIS2_PLACEMENT_3D('',#51,#52,#53);
#55=CIRCLE('',#54,1.);
#56=EDGE_CURVE('',#43,#33,#55,.T.);
#57=ORIENTED_EDGE('',*,*,#56,.T.);
#58=ORIENTED_EDGE('',*,*,#40,.T.);
#59=CARTESIAN_POINT('',(14.5,29.018990695,24.993747473));
#60=DIRECTION('',(1.,0.,-0.));
#61=DIRECTION('',(0.,0.,1.));
#62=AXIS2_PLACEMENT_3D('',#59,#60,#61);
#63=CIRCLE('',#62,1.);
#64=EDGE_CURVE('',#35,#35,#63,.T.);
#65=ORIENTED_EDGE('',*,*,#64,.F.);
#66=EDGE_LOOP('',(#41,#50,#57,#58,#65));
#67=FACE_BOUND('',#66,.T.);
#68=CARTESIAN_POINT('',(17.251134795,29.137981391,25.986642842));
#69=VERTEX_POINT('',#68);
#70=CARTESIAN_POINT('',(15.748865205,29.137981391,25.986642842));
#71=VERTEX_POINT('',#70);
#72=CARTESIAN_POINT('',(17.251134795,29.137981391,25.986642842));
#73=DIRECTION('',(-1.,-0.,0.));
#74=VECTOR('',#73,1.502269591);
#75=LINE('',#72,#74);
#76=EDGE_CURVE('',#69,#71,#75,.T.);
#77=ORIENTED_EDGE('',*,*,#76,.F.);
#78=CARTESIAN_POINT('',(17.267486744,29.137981391,24.000852103));
#79=VERTEX_POINT('',#78);
#80=CARTESIAN_POINT('',(17.251134795,29.137981391,25.986642842));
#81=CARTESIAN_POINT('',(17.261341774,29.202010255,25.978969487));
#82=CARTESIAN_POINT('',(17.278827593,29.262049711,25.965618836));
#83=CARTESIAN_POINT('',(17.300486536,29.319399151,25.947558125));
#84=CARTESIAN_POINT('',(17.32214548,29.376748591,25.929497414));
#85=CARTESIAN_POINT('',(17.348311355,29.43187842,25.906381455));
#86=CARTESIAN_POINT('',(17.375796141,29.483353714,25.879392428));
#87=CARTESIAN_POINT('',(17.403280927,29.534829008,25.852403402));
#88=CARTESIAN_POINT('',(17.432116912,29.582854162,25.821583658));
#89=CARTESIAN_POINT('',(17.461029602,29.628116642,25.786820976));
#90=CARTESIAN_POINT('',(17.489942293,29.673379121,25.752058295));
#91=CARTESIAN_POINT('',(17.519210122,29.71618952,25.712968777));
#92=CARTESIAN_POINT('',(17.547068769,29.755436032,25.670244528));
#93=CARTESIAN_POINT('',(17.602786064,29.833929057,25.584796031));
#94=CARTESIAN_POINT('',(17.652740571,29.898378053,25.485784276));
#95=CARTESIAN_POINT('',(17.689792704,29.945198207,25.370761591));
#96=CARTESIAN_POINT('',(17.708318771,29.968608284,25.313250248));
#97=CARTESIAN_POINT('',(17.723009148,29.986766333,25.253456683));
#98=CARTESIAN_POINT('',(17.733297064,29.999311746,25.191157293));
#99=CARTESIAN_POINT('',(17.74358498,30.01185716,25.128857903));
#100=CARTESIAN_POINT('',(17.749310592,30.018586679,25.063825429));
#101=CARTESIAN_POINT('',(17.749939713,30.018972551,24.999771528));
#102=CARTESIAN_POINT('',(17.750568833,30.019358422,24.935717626));
#103=CARTESIAN_POINT('',(17.746192201,30.013504799,24.871085893));
#104=CARTESIAN_POINT('',(17.737065149,30.001613813,24.808135485));
#105=CARTESIAN_POINT('',(17.727938098,29.989722827,24.745185077));
#106=CARTESIAN_POINT('',(17.714325952,29.972133591,24.684886469));
#107=CARTESIAN_POINT('',(17.696878271,29.949297121,24.626964219));
#108=CARTESIAN_POINT('',(17.661982908,29.903624179,24.511119719));
#109=CARTESIAN_POINT('',(17.612456935,29.838128231,24.408349126));
#110=CARTESIAN_POINT('',(17.557958205,29.759538612,24.321743914));
#111=CARTESIAN_POINT('',(17.53070884,29.720243803,24.278441308));
#112=CARTESIAN_POINT('',(17.502379266,29.67788296,24.239295362));
#113=CARTESIAN_POINT('',(17.473876562,29.632258353,24.203872306));
#114=CARTESIAN_POINT('',(17.445373858,29.586633746,24.168449249));
#115=CARTESIAN_POINT('',(17.416548086,29.537476559,24.136668882));
#116=CARTESIAN_POINT('',(17.389644239,29.485838934,24.109410024));
#117=CARTESIAN_POINT('',(17.362740391,29.434201308,24.082151167));
#118=CARTESIAN_POINT('',(17.337515426,29.379840876,24.059125872));
#119=CARTESIAN_POINT('',(17.316070418,29.321631399,24.040642754));
#120=CARTESIAN_POINT('',(17.294625411,29.263421923,24.022159636));
#121=CARTESIAN_POINT('',(17.277341789,29.201948985,24.008518116));
#122=CARTESIAN_POINT('',(17.267486744,29.137981391,24.000852103));
#123=B_SPLINE_CURVE_WITH_KNOTS('',3,(#80,#81,#82,#83,#84,#85,#86,#87,#88,#89,#90,#91,#92,#93,#94,#95,#96,#97,#98,#99,#100,#101,#102,#103,#104,#105,
#106,#107,#108,#109,#110,#111,#112,#113,#114,#115,#116,#117,#118,#119,#120,#121,#122),.UNSPECIFIED.,.F.,.F.,(4,3,3,3,3,3,3,3,3,3,3,3,3,3,4),(0.,0.000191495,0.000382991,0.000574486,0.000765982,0.001148972,0.001340468,0.001531963,0.001723459,0.001914954,0.002297945,0.00248944,0.002680936,0.002872431,0.003063926),.UNSPECIFIED.);
#124=EDGE_CURVE('',#69,#79,#123,.T.);
#125=ORIENTED_EDGE('',*,*,#124,.T.);
#126=CARTESIAN_POINT('',(15.732513256,29.137981391,24.000852103));
#127=VERTEX_POINT('',#126);
#128=CARTESIAN_POINT('',(15.732513256,29.137981391,24.000852103));
#129=DIRECTION('',(1.,0.,-0.));
#130=VECTOR('',#129,1.534973488);
#131=LINE('',#128,#130);
#132=EDGE_CURVE('',#127,#79,#131,.T.);
#133=ORIENTED_EDGE('',*,*,#132,.F.);
#134=CARTESIAN_POINT('',(15.732513256,29.137981391,24.000852103));
#135=CARTESIAN_POINT('',(15.72264412,29.202040445,24.008529077));
#136=CARTESIAN_POINT('',(15.705694131,29.262234777,24.021909485));
#137=CARTESIAN_POINT('',(15.68461168,29.319775056,24.040055295));
#138=CARTESIAN_POINT('',(15.663529228,29.377315335,24.058201105));
#139=CARTESIAN_POINT('',(15.637990232,29.432681745,24.081459082));
#140=CARTESIAN_POINT('',(15.61111568,29.484378835,24.108640768));
#141=CARTESIAN_POINT('',(15.584241128,29.536075925,24.135822453));
#142=CARTESIAN_POINT('',(15.55600682,29.584305825,24.166880501));
#143=CARTESIAN_POINT('',(15.527693865,29.629741484,24.201924592));
#144=CARTESIAN_POINT('',(15.49938091,29.675177144,24.236968683));
#145=CARTESIAN_POINT('',(15.470708569,29.718142537,24.276402198));
#146=CARTESIAN_POINT('',(15.443490789,29.757447628,24.319446828));
#147=CARTESIAN_POINT('',(15.38905523,29.836057808,24.405536089));
#148=CARTESIAN_POINT('',(15.340321674,29.900572277,24.505573418));
#149=CARTESIAN_POINT('',(15.304902222,29.946965848,24.621105396));
#150=CARTESIAN_POINT('',(15.287192496,29.970162633,24.678871386));
#151=CARTESIAN_POINT('',(15.273334299,29.988074138,24.738914635));
#152=CARTESIAN_POINT('',(15.263920636,30.000329966,24.801463214));
#153=CARTESIAN_POINT('',(15.254506973,30.012585794,24.864011792));
#154=CARTESIAN_POINT('',(15.249724826,30.018949789,24.929066945));
#155=CARTESIAN_POINT('',(15.25001262,30.018990494,24.993111914));
#156=CARTESIAN_POINT('',(15.250300414,30.019031198,25.057156883));
#157=CARTESIAN_POINT('',(15.255621396,30.012805267,25.121847666));
#158=CARTESIAN_POINT('',(15.265626263,30.000623682,25.184526614));
#159=CARTESIAN_POINT('',(15.275631131,29.988442096,25.247205561));
#160=CARTESIAN_POINT('',(15.290074219,29.97060903,25.307241576));
#161=CARTESIAN_POINT('',(15.308335899,29.947561501,25.364902777));
#162=CARTESIAN_POINT('',(15.344859259,29.901466442,25.480225177));
#163=CARTESIAN_POINT('',(15.395728921,29.83590741,25.582108398));
#164=CARTESIAN_POINT('',(15.451459196,29.757508296,25.66798167));
#165=CARTESIAN_POINT('',(15.479324334,29.71830874,25.710918307));
#166=CARTESIAN_POINT('',(15.508260572,29.676075825,25.749752376));
#167=CARTESIAN_POINT('',(15.537381248,29.630601227,25.78490647));
#168=CARTESIAN_POINT('',(15.566501924,29.585126628,25.820060563));
#169=CARTESIAN_POINT('',(15.59592671,29.536198415,25.851577398));
#170=CARTESIAN_POINT('',(15.62343184,29.484797935,25.878633689));
#171=CARTESIAN_POINT('',(15.650936969,29.433397454,25.905689981));
#172=CARTESIAN_POINT('',(15.676783801,29.379266631,25.928579122));
#173=CARTESIAN_POINT('',(15.698825404,29.321215947,25.946984011));
#174=CARTESIAN_POINT('',(15.720867007,29.263165263,25.965388899));
#175=CARTESIAN_POINT('',(15.738675353,29.201902814,25.978982363));
#176=CARTESIAN_POINT('',(15.748865205,29.137981391,25.986642842));
#177=B_SPLINE_CURVE_WITH_KNOTS('',3,(#134,#135,#136,#137,#138,#139,#140,#141,#142,#143,#144,#145,#146,#147,#148,#149,#150,#151,#152,#153,#154,#155,#156,#157,#158,#159,
#160,#161,#162,#163,#164,#165,#166,#167,#168,#169,#170,#171,#172,#173,#174,#175,#176),.UNSPECIFIED.,.F.,.F.,(4,3,3,3,3,3,3,3,3,3,3,3,3,3,4),(0.,0.000191511,0.000383021,0.000574532,0.000766043,0.001149064,0.001340575,0.001532085,0.001723596,0.001915106,0.002298128,0.002489638,0.002681149,0.00287266,0.00306417),.UNSPECIFIED.);
#178=EDGE_CURVE('',#127,#71,#177,.T.);
#179=ORIENTED_EDGE('',*,*,#178,.T.);
#180=EDGE_LOOP('',(#77,#125,#133,#179));
#181=FACE_BOUND('',#180,.T.);
#182=ADVANCED_FACE('',(#67,#181),#31,.F.);
#183=CARTESIAN_POINT('',(14.5,30.518990695,24.993747473));
#184=DIRECTION('',(1.,0.,-0.));
#185=DIRECTION('',(0.,0.,1.));
#186=AXIS2_PLACEMENT_3D('',#183,#184,#185);
#187=CYLINDRICAL_SURFACE('',#186,4.);
#188=CARTESIAN_POINT('',(19.5,30.518990695,28.993747473));
#189=VERTEX_POINT('',#188);
#190=CARTESIAN_POINT('',(14.5,30.518990695,28.993747473));
#191=VERTEX_POINT('',#190);
#192=CARTESIAN_POINT('',(19.5,30.518990695,28.993747473));
#193=DIRECTION('',(-1.,-0.,-0.));
#194=VECTOR('',#193,5.);
#195=LINE('',#192,#194);
#196=EDGE_CURVE('',#189,#191,#195,.T.);
#197=ORIENTED_EDGE('',*,*,#196,.T.);
#198=CARTESIAN_POINT('',(14.5,30.518990695,24.993747473));
#199=DIRECTION('',(1.,0.,-0.));
#200=DIRECTION('',(0.,0.,1.));
#201=AXIS2_PLACEMENT_3D('',#198,#199,#200);
#202=CIRCLE('',#201,4.);
#203=EDGE_CURVE('',#191,#191,#202,.T.);
#204=ORIENTED_EDGE('',*,*,#203,.T.);
#205=ORIENTED_EDGE('',*,*,#196,.F.);
#206=CARTESIAN_POINT('',(19.5,30.518990695,24.993747473));
#207=DIRECTION('',(1.,0.,-0.));
#208=DIRECTION('',(0.,0.,1.));
#209=AXIS2_PLACEMENT_3D('',#206,#207,#208);
#210=CIRCLE('',#209,4.);
#211=EDGE_CURVE('',#189,#189,#210,.T.);
#212=ORIENTED_EDGE('',*,*,#211,.F.);
#213=EDGE_LOOP('',(#197,#204,#205,#212));
#214=FACE_BOUND('',#213,.T.);
#215=CARTESIAN_POINT('',(16.5,34.320712966,26.237494946));
#216=VERTEX_POINT('',#215);
#217=CARTESIAN_POINT('',(16.5,34.320712966,26.237494946));
#218=CARTESIAN_POINT('',(16.583144891,34.320712966,26.237494946));
#219=CARTESIAN_POINT('',(16.66478977,34.323427083,26.229282833));
#220=CARTESIAN_POINT('',(16.745014317,34.328560358,26.213246953));
#221=CARTESIAN_POINT('',(16.825238864,34.333693634,26.197211074));
#222=CARTESIAN_POINT('',(16.904895199,34.341372961,26.172930307));
#223=CARTESIAN_POINT('',(16.980446311,34.350794468,26.141475596));
#224=CARTESIAN_POINT('',(17.055997423,34.360215976,26.110020885));
#225=CARTESIAN_POINT('',(17.127580683,34.371319069,26.071601336));
#226=CARTESIAN_POINT('',(17.195319148,34.38343366,26.026259251));
#227=CARTESIAN_POINT('',(17.263057612,34.395548251,25.980917167));
#228=CARTESIAN_POINT('',(17.326762384,34.408676081,25.928517068));
#229=CARTESIAN_POINT('',(17.384020783,34.421554589,25.871241094));
#230=CARTESIAN_POINT('',(17.498537583,34.447311607,25.756689146));
#231=CARTESIAN_POINT('',(17.591504094,34.472867078,25.618054994));
#232=CARTESIAN_POINT('',(17.654039642,34.490800691,25.467799541));
#233=CARTESIAN_POINT('',(17.685307416,34.499767497,25.392671814));
#234=CARTESIAN_POINT('',(17.709599667,34.507026441,25.313318262));
#235=CARTESIAN_POINT('',(17.725753429,34.511858863,25.232502153));
#236=CARTESIAN_POINT('',(17.741907191,34.516691285,25.151686045));
#237=CARTESIAN_POINT('',(17.74996013,34.519102655,25.07021712));
#238=CARTESIAN_POINT('',(17.749999854,34.518986708,24.988099621));
#239=CARTESIAN_POINT('',(17.750039578,34.518870761,24.905982121));
#240=CARTESIAN_POINT('',(17.741781057,34.51613789,24.822575535));
#241=CARTESIAN_POINT('',(17.725696328,34.511073485,24.742202241));
#242=CARTESIAN_POINT('',(17.709611599,34.50600908,24.661828947));
#243=CARTESIAN_POINT('',(17.685822941,34.49864832,24.583639251));
#244=CARTESIAN_POINT('',(17.654223746,34.4893424,24.50763294));
#245=CARTESIAN_POINT('',(17.591025355,34.470730562,24.355620318));
#246=CARTESIAN_POINT('',(17.498886286,34.444932971,24.218543966));
#247=CARTESIAN_POINT('',(17.383614055,34.418628925,24.103342129));
#248=CARTESIAN_POINT('',(17.325977939,34.405476903,24.045741211));
#249=CARTESIAN_POINT('',(17.26344016,34.392423054,23.994389165));
#250=CARTESIAN_POINT('',(17.195958392,34.380186694,23.949158817));
#251=CARTESIAN_POINT('',(17.128476624,34.367950335,23.903928469));
#252=CARTESIAN_POINT('',(17.055344706,34.356470705,23.864669616));
#253=CARTESIAN_POINT('',(16.980085308,34.346981074,23.833364062));
#254=CARTESIAN_POINT('',(16.90482591,34.337491444,23.802058507));
#255=CARTESIAN_POINT('',(16.826886036,34.329856706,23.778185573));
#256=CARTESIAN_POINT('',(16.746136561,34.324607443,23.761967796));
#257=CARTESIAN_POINT('',(16.665387086,34.31935818,23.74575002));
#258=CARTESIAN_POINT('',(16.582448879,34.316610849,23.737530465));
#259=CARTESIAN_POINT('',(16.500540091,34.316599138,23.737495062));
#260=CARTESIAN_POINT('',(16.336722515,34.316575716,23.737424257));
#261=CARTESIAN_POINT('',(16.171315779,34.32791695,23.770489652));
#262=CARTESIAN_POINT('',(16.020590721,34.34689589,23.833083085));
#263=CARTESIAN_POINT('',(15.945228192,34.35638536,23.864379801));
#264=CARTESIAN_POINT('',(15.872104586,34.36785354,23.903586386));
#265=CARTESIAN_POINT('',(15.804543753,34.380095672,23.948822423));
#266=CARTESIAN_POINT('',(15.73698292,34.392337805,23.994058461));
#267=CARTESIAN_POINT('',(15.674361792,34.405403031,24.045435182));
#268=CARTESIAN_POINT('',(15.616642355,34.418570423,24.10308595));
#269=CARTESIAN_POINT('',(15.50120348,34.444905208,24.218387487));
#270=CARTESIAN_POINT('',(15.409485363,34.470585175,24.354672571));
#271=CARTESIAN_POINT('',(15.346089335,34.489250211,24.50688057));
#272=CARTESIAN_POINT('',(15.314391322,34.498582729,24.582984569));
#273=CARTESIAN_POINT('',(15.29059179,34.505946208,24.661126926));
#274=CARTESIAN_POINT('',(15.274487996,34.511015456,24.74128299));
#275=CARTESIAN_POINT('',(15.258384201,34.516084703,24.821439055));
#276=CARTESIAN_POINT('',(15.250031238,34.518846529,24.904637224));
#277=CARTESIAN_POINT('',(15.250000089,34.518985042,24.987022328));
#278=CARTESIAN_POINT('',(15.249968941,34.519123555,25.069407432));
#279=CARTESIAN_POINT('',(15.258003917,34.51671806,25.150920686));
#280=CARTESIAN_POINT('',(15.274060754,34.511914452,25.231570681));
#281=CARTESIAN_POINT('',(15.290117591,34.507110844,25.312220676));
#282=CARTESIAN_POINT('',(15.314428599,34.499844675,25.39193805));
#283=CARTESIAN_POINT('',(15.345736268,34.490864959,25.46726076));
#284=CARTESIAN_POINT('',(15.408351606,34.472905527,25.617906179));
#285=CARTESIAN_POINT('',(15.501288382,34.447353938,25.756485008));
#286=CARTESIAN_POINT('',(15.615863562,34.421580604,25.871125388));
#287=CARTESIAN_POINT('',(15.673151151,34.408693937,25.928445578));
#288=CARTESIAN_POINT('',(15.736931534,34.39555137,25.980903237));
#289=CARTESIAN_POINT('',(15.804609947,34.383446342,26.026211786));
#290=CARTESIAN_POINT('',(15.87228836,34.371341314,26.071520334));
#291=CARTESIAN_POINT('',(15.943780694,34.360250447,26.109901359));
#292=CARTESIAN_POINT('',(16.019199904,34.350838603,26.141328238));
#293=CARTESIAN_POINT('',(16.094619113,34.341426759,26.172755118));
#294=CARTESIAN_POINT('',(16.174410386,34.333720801,26.197125577));
#295=CARTESIAN_POINT('',(16.254760688,34.328574762,26.213201958));
#296=CARTESIAN_POINT('',(16.335110989,34.323428722,26.229278339));
#297=CARTESIAN_POINT('',(16.416833704,34.320712966,26.237494946));
#298=CARTESIAN_POINT('',(16.5,34.320712966,26.237494946));
#299=B_SPLINE_CURVE_WITH_KNOTS('',3,(#217,#218,#219,#220,#221,#222,#223,#224,#225,#226,#227,#228,#229,#230,#231,#232,#233,#234,#235,#236,#237,#238,#239,#240,#241,#242,
#243,#244,#245,#246,#247,#248,#249,#250,#251,#252,#253,#254,#255,#256,#257,#258,#259,#260,#261,#262,#263,#264,#265,#266,#267,
#268,#269,#270,#271,#272,#273,#274,#275,#276,#277,#278,#279,#280,#281,#282,#283,#284,#285,#286,#287,#288,#289,#290,#291,#292,
#293,#294,#295,#296,#297,#298),.UNSPECIFIED.,.T.,.F.,(4,3,3,3,3,3,3,3,3,3,3,3,3,3,3,3,3,3,3,3,3,3,3,3,3,3,
3,4),(0.,0.000245765,0.000491531,0.000737296,0.000983062,0.001474592,0.001720358,0.001966123,0.002211889,0.002457654,0.002949185,0.00319495,0.003440716,0.003686481,0.003932247,0.004423777,0.004669543,0.004915308,0.005406839,0.005652605,0.00589837,0.006144135,0.006389901,0.006881432,0.007127197,0.007372962,
0.007618728,0.007864493),.UNSPECIFIED.);
#300=EDGE_CURVE('',#216,#216,#299,.T.);
#301=ORIENTED_EDGE('',*,*,#300,.F.);
#302=EDGE_LOOP('',(#301));
#303=FACE_BOUND('',#302,.T.);
#304=ADVANCED_FACE('',(#214,#303),#187,.T.);
#305=CARTESIAN_POINT('',(14.5,59.537981391,49.987494946));
#306=DIRECTION('',(1.,0.,0.));
#307=DIRECTION('',(0.,-1.,0.));
#308=AXIS2_PLACEMENT_3D('',#305,#306,#307);
#309=PLANE('',#308);
#310=ORIENTED_EDGE('',*,*,#64,.T.);
#311=EDGE_LOOP('',(#310));
#312=FACE_BOUND('',#311,.T.);
#313=ORIENTED_EDGE('',*,*,#203,.F.);
#314=EDGE_LOOP('',(#313));
#315=FACE_BOUND('',#314,.T.);
#316=ADVANCED_FACE('',(#312,#315),#309,.F.);
#317=CARTESIAN_POINT('',(19.5,59.537981391,49.987494946));
#318=DIRECTION('',(1.,0.,0.));
#319=DIRECTION('',(0.,-1.,0.));
#320=AXIS2_PLACEMENT_3D('',#317,#318,#319);
#321=PLANE('',#320);
#322=CARTESIAN_POINT('',(19.5,30.518990695,21.993747473));
#323=VERTEX_POINT('',#322);
#324=CARTESIAN_POINT('',(19.5,30.518990695,27.993747473));
#325=VERTEX_POINT('',#324);
#326=CARTESIAN_POINT('',(19.5,30.518990695,24.993747473));
#327=DIRECTION('',(1.,0.,-0.));
#328=DIRECTION('',(0.,0.,1.));
#329=AXIS2_PLACEMENT_3D('',#326,#327,#328);
#330=CIRCLE('',#329,3.);
#331=EDGE_CURVE('',#323,#325,#330,.T.);
#332=ORIENTED_EDGE('',*,*,#331,.F.);
#333=CARTESIAN_POINT('',(19.5,30.518990695,24.993747473));
#334=DIRECTION('',(1.,0.,-0.));
#335=DIRECTION('',(0.,0.,1.));
#336=AXIS2_PLACEMENT_3D('',#333,#334,#335);
#337=CIRCLE('',#336,3.);
#338=EDGE_CURVE('',#325,#323,#337,.T.);
#339=ORIENTED_EDGE('',*,*,#338,.F.);
#340=EDGE_LOOP('',(#332,#339));
#341=FACE_BOUND('',#340,.T.);
#342=ORIENTED_EDGE('',*,*,#211,.T.);
#343=EDGE_LOOP('',(#342));
#344=FACE_BOUND('',#343,.T.);
#345=ADVANCED_FACE('',(#341,#344),#321,.T.);
#346=CARTESIAN_POINT('',(22.5,30.518990695,24.993747473));
#347=DIRECTION('',(-1.,-0.,0.));
#348=DIRECTION('',(0.,-0.,-1.));
#349=AXIS2_PLACEMENT_3D('',#346,#347,#348);
#350=CYLINDRICAL_SURFACE('',#349,3.);
#351=CARTESIAN_POINT('',(22.5,30.518990695,21.993747473));
#352=VERTEX_POINT('',#351);
#353=CARTESIAN_POINT('',(19.5,30.518990695,21.993747473));
#354=DIRECTION('',(1.,-0.,-0.));
#355=VECTOR('',#354,3.);
#356=LINE('',#353,#355);
#357=EDGE_CURVE('',#323,#352,#356,.T.);
#358=ORIENTED_EDGE('',*,*,#357,.T.);
#359=CARTESIAN_POINT('',(22.5,30.518990695,24.993747473));
#360=DIRECTION('',(1.,0.,0.));
#361=DIRECTION('',(0.,0.,-1.));
#362=AXIS2_PLACEMENT_3D('',#359,#360,#361);
#363=CIRCLE('',#362,3.);
#364=EDGE_CURVE('',#352,#352,#363,.T.);
#365=ORIENTED_EDGE('',*,*,#364,.F.);
#366=ORIENTED_EDGE('',*,*,#357,.F.);
#367=ORIENTED_EDGE('',*,*,#331,.T.);
#368=ORIENTED_EDGE('',*,*,#338,.T.);
#369=EDGE_LOOP('',(#358,#365,#366,#367,#368));
#370=FACE_BOUND('',#369,.T.);
#371=ADVANCED_FACE('',(#370),#350,.T.);
#372=CARTESIAN_POINT('',(22.5,59.537981391,49.987494946));
#373=DIRECTION('',(1.,0.,0.));
#374=DIRECTION('',(0.,-1.,0.));
#375=AXIS2_PLACEMENT_3D('',#372,#373,#374);
#376=PLANE('',#375);
#377=ORIENTED_EDGE('',*,*,#49,.F.);
#378=ORIENTED_EDGE('',*,*,#56,.F.);
#379=EDGE_LOOP('',(#377,#378));
#380=FACE_BOUND('',#379,.T.);
#381=ORIENTED_EDGE('',*,*,#364,.T.);
#382=EDGE_LOOP('',(#381));
#383=FACE_BOUND('',#382,.T.);
#384=ADVANCED_FACE('',(#380,#383),#376,.T.);
#385=CARTESIAN_POINT('',(16.5,29.137981391,24.987494946));
#386=DIRECTION('',(0.,1.,-0.));
#387=DIRECTION('',(0.,0.,1.));
#388=AXIS2_PLACEMENT_3D('',#385,#386,#387);
#389=CYLINDRICAL_SURFACE('',#388,1.25);
#390=CARTESIAN_POINT('',(16.5,29.137981391,26.237494946));
#391=VERTEX_POINT('',#390);
#392=CARTESIAN_POINT('',(16.5,34.320712966,26.237494946));
#393=DIRECTION('',(-0.,-1.,0.));
#394=VECTOR('',#393,5.182731575);
#395=LINE('',#392,#394);
#396=EDGE_CURVE('',#216,#391,#395,.T.);
#397=ORIENTED_EDGE('',*,*,#396,.F.);
#398=ORIENTED_EDGE('',*,*,#300,.T.);
#399=ORIENTED_EDGE('',*,*,#396,.T.);
#400=CARTESIAN_POINT('',(16.5,29.137981391,24.987494946));
#401=DIRECTION('',(0.,1.,-0.));
#402=DIRECTION('',(0.,0.,1.));
#403=AXIS2_PLACEMENT_3D('',#400,#401,#402);
#404=CIRCLE('',#403,1.25);
#405=EDGE_CURVE('',#71,#391,#404,.T.);
#406=ORIENTED_EDGE('',*,*,#405,.F.);
#407=ORIENTED_EDGE('',*,*,#178,.F.);
#408=CARTESIAN_POINT('',(16.5,29.137981391,24.987494946));
#409=DIRECTION('',(0.,1.,-0.));
#410=DIRECTION('',(0.,0.,1.));
#411=AXIS2_PLACEMENT_3D('',#408,#409,#410);
#412=CIRCLE('',#411,1.25);
#413=EDGE_CURVE('',#79,#127,#412,.T.);
#414=ORIENTED_EDGE('',*,*,#413,.F.);
#415=ORIENTED_EDGE('',*,*,#124,.F.);
#416=CARTESIAN_POINT('',(16.5,29.137981391,24.987494946));
#417=DIRECTION('',(0.,1.,-0.));
#418=DIRECTION('',(0.,0.,1.));
#419=AXIS2_PLACEMENT_3D('',#416,#417,#418);
#420=CIRCLE('',#419,1.25);
#421=EDGE_CURVE('',#391,#69,#420,.T.);
#422=ORIENTED_EDGE('',*,*,#421,.F.);
#423=EDGE_LOOP('',(#397,#398,#399,#406,#407,#414,#415,#422));
#424=FACE_BOUND('',#423,.T.);
#425=ADVANCED_FACE('',(#424),#389,.F.);
#426=CARTESIAN_POINT('',(0.,29.137981391,49.987494946));
#427=DIRECTION('',(0.,1.,-0.));
#428=DIRECTION('',(1.,0.,0.));
#429=AXIS2_PLACEMENT_3D('',#426,#427,#428);
#430=PLANE('',#429);
#431=ORIENTED_EDGE('',*,*,#76,.T.);
#432=ORIENTED_EDGE('',*,*,#405,.T.);
#433=ORIENTED_EDGE('',*,*,#421,.T.);
#434=EDGE_LOOP('',(#431,#432,#433));
#435=FACE_BOUND('',#434,.T.);
#436=ADVANCED_FACE('',(#435),#430,.T.);
#437=CARTESIAN_POINT('',(0.,29.137981391,49.987494946));
#438=DIRECTION('',(0.,1.,-0.));
#439=DIRECTION('',(1.,0.,0.));
#440=AXIS2_PLACEMENT_3D('',#437,#438,#439);
#441=PLANE('',#440);
#442=ORIENTED_EDGE('',*,*,#132,.T.);
#443=ORIENTED_EDGE('',*,*,#413,.T.);
#444=EDGE_LOOP('',(#442,#443));
#445=FACE_BOUND('',#444,.T.);
#446=ADVANCED_FACE('',(#445),#441,.T.);
#447=CLOSED_SHELL('',(#182,#304,#316,#345,#371,#384,#425,#436,#446));
#448=MANIFOLD_SOLID_BREP('Corps 04',#447);
#449=COLOUR_RGB('',0.701960802,0.737254918,0.);
#450=FILL_AREA_STYLE_COLOUR('',#449);
#451=FILL_AREA_STYLE('',(#450));
#452=SURFACE_STYLE_FILL_AREA(#451);
#453=SURFACE_SIDE_STYLE('',(#452));
#454=SURFACE_STYLE_USAGE(.BOTH.,#453);
#455=PRESENTATION_STYLE_ASSIGNMENT((#454));
#26=STYLED_ITEM('',(#455),#448);
#16=SHAPE_REPRESENTATION('/var/mobile/Containers/Data/Application/27846B57-8B49-44E1-BDDF-7DFC426027F9/Documents/6A4B3169-47CF-4B28-AE78-19600EE814B4.tmp',(#15),#10);
#17=ADVANCED_BREP_SHAPE_REPRESENTATION('/var/mobile/Containers/Data/Application/27846B57-8B49-44E1-BDDF-7DFC426027F9/Documents/6A4B3169-47CF-4B28-AE78-19600EE814B4.tmp',(#448),#10);
#463=SHAPE_REPRESENTATION_RELATIONSHIP('','',#16,#17);
#464=APPLICATION_CONTEXT('configuration controlled 3D design of mechanical parts and assemblies');
#465=APPLICATION_PROTOCOL_DEFINITION('international standard','configuration_control_3d_design_ed2_mim',2004,#464);
#466=PRODUCT_CONTEXT('',#464,'mechanical');
#467=PRODUCT_DEFINITION_CONTEXT('part definition',#464,'design');
#24=PRODUCT('/var/mobile/Containers/Data/Application/27846B57-8B49-44E1-BDDF-7DFC426027F9/Documents/6A4B3169-47CF-4B28-AE78-19600EE814B4.tmp','/var/mobile/Containers/Data/Application/27846B57-8B49-44E1-BDDF-7DFC426027F9/Documents/6A4B3169-47CF-4B28-AE78-19600EE814B4.tmp','',(#466));
#468=PRODUCT_RELATED_PRODUCT_CATEGORY('part','',(#24));
#469=PRODUCT_DEFINITION_FORMATION_WITH_SPECIFIED_SOURCE('','',#24,.NOT_KNOWN.);
#25=PRODUCT_DEFINITION('design','',#469,#467);
#23=PRODUCT_DEFINITION_SHAPE('','',#25);
#470=SHAPE_DEFINITION_REPRESENTATION(#23,#16);
#11=DRAUGHTING_MODEL('',(),#10);
#1=MECHANICAL_DESIGN_GEOMETRIC_PRESENTATION_REPRESENTATION('',(#26),#10);
ENDSEC;
END-ISO-10303-21;
