ISO-10303-21;
HEADER;
/* Generated by software containing ST-Developer
 * from STEP Tools, Inc. (www.steptools.com) 
 */
/* OPTION: strings as raw bytes, not using required /X/ escapes */

FILE_DESCRIPTION(
/* description */ ('Unknown'),
/* implementation_level */ '2;1');

FILE_NAME(
/* name */ 'rondelle arrÃªt',
/* time_stamp */ '2020-11-16T19:01:03+01:00',
/* author */ ('Unknown'),
/* organization */ ('Unknown'),
/* preprocessor_version */ 'ST-DEVELOPER v16.7',
/* originating_system */ 'DEX',
/* authorisation */ $);

FILE_SCHEMA (('AUTOMOTIVE_DESIGN {1 0 10303 214 3 1 1}'));
ENDSEC;

DATA;
#10=PROPERTY_DEFINITION_REPRESENTATION(#14,#12);
#11=PROPERTY_DEFINITION_REPRESENTATION(#15,#13);
#12=REPRESENTATION('',(#16),#117);
#13=REPRESENTATION('',(#17),#117);
#14=PROPERTY_DEFINITION('pmi validation property','',#122);
#15=PROPERTY_DEFINITION('pmi validation property','',#122);
#16=VALUE_REPRESENTATION_ITEM('number of annotations',COUNT_MEASURE(0.));
#17=VALUE_REPRESENTATION_ITEM('number of views',COUNT_MEASURE(0.));
#18=SHAPE_REPRESENTATION_RELATIONSHIP('','',#75,#19);
#19=ADVANCED_BREP_SHAPE_REPRESENTATION('',(#73),#117);
#20=CYLINDRICAL_SURFACE('',#80,20.);
#21=CYLINDRICAL_SURFACE('',#84,12.2);
#22=ORIENTED_EDGE('',*,*,#30,.F.);
#23=ORIENTED_EDGE('',*,*,#31,.T.);
#24=ORIENTED_EDGE('',*,*,#32,.F.);
#25=ORIENTED_EDGE('',*,*,#30,.T.);
#26=ORIENTED_EDGE('',*,*,#33,.F.);
#27=ORIENTED_EDGE('',*,*,#32,.T.);
#28=ORIENTED_EDGE('',*,*,#31,.F.);
#29=ORIENTED_EDGE('',*,*,#33,.T.);
#30=EDGE_CURVE('',#34,#34,#38,.T.);
#31=EDGE_CURVE('',#35,#35,#39,.T.);
#32=EDGE_CURVE('',#36,#36,#40,.T.);
#33=EDGE_CURVE('',#37,#37,#41,.T.);
#34=VERTEX_POINT('',#106);
#35=VERTEX_POINT('',#108);
#36=VERTEX_POINT('',#111);
#37=VERTEX_POINT('',#114);
#38=CIRCLE('',#78,20.);
#39=CIRCLE('',#79,12.2);
#40=CIRCLE('',#81,20.);
#41=CIRCLE('',#83,12.2);
#42=EDGE_LOOP('',(#22));
#43=EDGE_LOOP('',(#23));
#44=EDGE_LOOP('',(#24));
#45=EDGE_LOOP('',(#25));
#46=EDGE_LOOP('',(#26));
#47=EDGE_LOOP('',(#27));
#48=EDGE_LOOP('',(#28));
#49=EDGE_LOOP('',(#29));
#50=FACE_BOUND('',#42,.T.);
#51=FACE_BOUND('',#43,.T.);
#52=FACE_BOUND('',#44,.T.);
#53=FACE_BOUND('',#45,.T.);
#54=FACE_BOUND('',#46,.T.);
#55=FACE_BOUND('',#47,.T.);
#56=FACE_BOUND('',#48,.T.);
#57=FACE_BOUND('',#49,.T.);
#58=PLANE('',#77);
#59=PLANE('',#82);
#60=ADVANCED_FACE('',(#50,#51),#58,.F.);
#61=ADVANCED_FACE('',(#52,#53),#20,.T.);
#62=ADVANCED_FACE('',(#54,#55),#59,.F.);
#63=ADVANCED_FACE('',(#56,#57),#21,.F.);
#64=CLOSED_SHELL('',(#60,#61,#62,#63));
#65=STYLED_ITEM('',(#66),#73);
#66=PRESENTATION_STYLE_ASSIGNMENT((#67));
#67=SURFACE_STYLE_USAGE(.BOTH.,#68);
#68=SURFACE_SIDE_STYLE('',(#69));
#69=SURFACE_STYLE_FILL_AREA(#70);
#70=FILL_AREA_STYLE('',(#71));
#71=FILL_AREA_STYLE_COLOUR('',#72);
#72=COLOUR_RGB('',0.506983280181885,0.531564235687256,0.550000011920929);
#73=MANIFOLD_SOLID_BREP('',#64);
#74=SHAPE_DEFINITION_REPRESENTATION(#122,#75);
#75=SHAPE_REPRESENTATION('rondelle arrêt circlip',(#76),#117);
#76=AXIS2_PLACEMENT_3D('',#103,#85,#86);
#77=AXIS2_PLACEMENT_3D('',#104,#87,#88);
#78=AXIS2_PLACEMENT_3D('',#105,#89,#90);
#79=AXIS2_PLACEMENT_3D('',#107,#91,#92);
#80=AXIS2_PLACEMENT_3D('',#109,#93,#94);
#81=AXIS2_PLACEMENT_3D('',#110,#95,#96);
#82=AXIS2_PLACEMENT_3D('',#112,#97,#98);
#83=AXIS2_PLACEMENT_3D('',#113,#99,#100);
#84=AXIS2_PLACEMENT_3D('',#115,#101,#102);
#85=DIRECTION('',(0.,0.,1.));
#86=DIRECTION('',(1.,0.,0.));
#87=DIRECTION('',(-6.12303176911189E-17,-1.,-1.33917876593058E-16));
#88=DIRECTION('',(0.,1.33917876593058E-16,-1.));
#89=DIRECTION('',(-6.12303176911189E-17,-1.,-1.33917876593058E-16));
#90=DIRECTION('',(0.,1.33917876593058E-16,-1.));
#91=DIRECTION('',(-6.12303176911189E-17,-1.,-1.33917876593058E-16));
#92=DIRECTION('',(0.,1.33917876593058E-16,-1.));
#93=DIRECTION('',(-6.12303176911189E-17,-1.,-1.33917876593058E-16));
#94=DIRECTION('',(0.,1.33917876593058E-16,-1.));
#95=DIRECTION('',(-6.12303176911189E-17,-1.,-1.33917876593058E-16));
#96=DIRECTION('',(0.,1.33917876593058E-16,-1.));
#97=DIRECTION('',(6.12303176911189E-17,1.,1.33917876593058E-16));
#98=DIRECTION('',(0.,-1.33917876593058E-16,1.));
#99=DIRECTION('',(-6.12303176911189E-17,-1.,-1.33917876593058E-16));
#100=DIRECTION('',(0.,1.33917876593058E-16,-1.));
#101=DIRECTION('',(-6.12303176911189E-17,-1.,-1.33917876593058E-16));
#102=DIRECTION('',(0.,1.33917876593058E-16,-1.));
#103=CARTESIAN_POINT('',(0.,0.,0.));
#104=CARTESIAN_POINT('',(-6.91902589909643E-15,-113.,12.2));
#105=CARTESIAN_POINT('',(-6.91902589909643E-15,-113.,-1.51327200550156E-14));
#106=CARTESIAN_POINT('',(-6.91902589909643E-15,-113.,-20.));
#107=CARTESIAN_POINT('',(-6.91902589909643E-15,-113.,-1.51327200550156E-14));
#108=CARTESIAN_POINT('',(-6.91902589909643E-15,-113.,-12.2));
#109=CARTESIAN_POINT('',(0.,0.,0.));
#110=CARTESIAN_POINT('',(-7.04148653447867E-15,-115.,-1.54005558082017E-14));
#111=CARTESIAN_POINT('',(-7.04148653447867E-15,-115.,-20.));
#112=CARTESIAN_POINT('',(-7.04148653447867E-15,-115.,20.));
#113=CARTESIAN_POINT('',(-7.04148653447867E-15,-115.,-1.54005558082017E-14));
#114=CARTESIAN_POINT('',(-7.04148653447867E-15,-115.,-12.2));
#115=CARTESIAN_POINT('',(0.,0.,0.));
#116=MECHANICAL_DESIGN_GEOMETRIC_PRESENTATION_REPRESENTATION('',(#65),#117);
#117=(
GEOMETRIC_REPRESENTATION_CONTEXT(3)
GLOBAL_UNCERTAINTY_ASSIGNED_CONTEXT((#118))
GLOBAL_UNIT_ASSIGNED_CONTEXT((#121,#120,#119))
REPRESENTATION_CONTEXT('rondelle arrêt circlip',
'TOP_LEVEL_ASSEMBLY_PART')
);
#118=UNCERTAINTY_MEASURE_WITH_UNIT(LENGTH_MEASURE(0.005),#121,
'DISTANCE_ACCURACY_VALUE','Maximum Tolerance applied to model');
#119=(
NAMED_UNIT(*)
SI_UNIT($,.STERADIAN.)
SOLID_ANGLE_UNIT()
);
#120=(
NAMED_UNIT(*)
PLANE_ANGLE_UNIT()
SI_UNIT($,.RADIAN.)
);
#121=(
LENGTH_UNIT()
NAMED_UNIT(*)
SI_UNIT(.MILLI.,.METRE.)
);
#122=PRODUCT_DEFINITION_SHAPE('','',#123);
#123=PRODUCT_DEFINITION('','',#125,#124);
#124=PRODUCT_DEFINITION_CONTEXT('',#131,'design');
#125=PRODUCT_DEFINITION_FORMATION_WITH_SPECIFIED_SOURCE('','',#127,
 .NOT_KNOWN.);
#126=PRODUCT_RELATED_PRODUCT_CATEGORY('','',(#127));
#127=PRODUCT('rondelle arrêt circlip','rondelle arrêt circlip',
'rondelle arrêt circlip',(#129));
#128=PRODUCT_CATEGORY('','');
#129=PRODUCT_CONTEXT('',#131,'mechanical');
#130=APPLICATION_PROTOCOL_DEFINITION('international standard',
'automotive_design',2010,#131);
#131=APPLICATION_CONTEXT(
'core data for automotive mechanical design processes');
ENDSEC;
END-ISO-10303-21;
