ISO-10303-21;
HEADER;
/* Generated by software containing ST-Developer
 * from STEP Tools, Inc. (www.steptools.com) 
 */

FILE_DESCRIPTION(
/* description */ (''),
/* implementation_level */ '2;1');

FILE_NAME(
/* name */ 'C:/Users/Admin/Documents/Adaptateur v2.step',
/* time_stamp */ '2020-11-15T20:35:11+01:00',
/* author */ (''),
/* organization */ (''),
/* preprocessor_version */ 'ST-DEVELOPER v18.1',
/* originating_system */ 'Autodesk Translation Framework v9.3.0.1241',
/* authorisation */ '');

FILE_SCHEMA (('AUTOMOTIVE_DESIGN { 1 0 10303 214 3 1 1 }'));
ENDSEC;

DATA;
#10=MECHANICAL_DESIGN_GEOMETRIC_PRESENTATION_REPRESENTATION('',(#13),#541);
#11=SHAPE_REPRESENTATION_RELATIONSHIP('SRR','None',#548,#12);
#12=ADVANCED_BREP_SHAPE_REPRESENTATION('',(#14),#540);
#13=STYLED_ITEM('',(#557),#14);
#14=MANIFOLD_SOLID_BREP('Adaptateur',#315);
#15=CYLINDRICAL_SURFACE('',#333,4.5);
#16=CYLINDRICAL_SURFACE('',#335,21.5);
#17=CYLINDRICAL_SURFACE('',#351,3.5);
#18=CYLINDRICAL_SURFACE('',#353,3.5);
#19=CYLINDRICAL_SURFACE('',#357,6.5);
#20=CYLINDRICAL_SURFACE('',#360,6.5);
#21=FACE_BOUND('',#48,.T.);
#22=FACE_BOUND('',#52,.T.);
#23=FACE_BOUND('',#56,.T.);
#24=FACE_BOUND('',#57,.T.);
#25=FACE_BOUND('',#63,.T.);
#26=FACE_BOUND('',#64,.T.);
#27=FACE_BOUND('',#68,.T.);
#28=FACE_BOUND('',#71,.T.);
#29=FACE_OUTER_BOUND('',#47,.T.);
#30=FACE_OUTER_BOUND('',#49,.T.);
#31=FACE_OUTER_BOUND('',#50,.T.);
#32=FACE_OUTER_BOUND('',#51,.T.);
#33=FACE_OUTER_BOUND('',#53,.T.);
#34=FACE_OUTER_BOUND('',#54,.T.);
#35=FACE_OUTER_BOUND('',#55,.T.);
#36=FACE_OUTER_BOUND('',#58,.T.);
#37=FACE_OUTER_BOUND('',#59,.T.);
#38=FACE_OUTER_BOUND('',#60,.T.);
#39=FACE_OUTER_BOUND('',#61,.T.);
#40=FACE_OUTER_BOUND('',#62,.T.);
#41=FACE_OUTER_BOUND('',#65,.T.);
#42=FACE_OUTER_BOUND('',#66,.T.);
#43=FACE_OUTER_BOUND('',#67,.T.);
#44=FACE_OUTER_BOUND('',#69,.T.);
#45=FACE_OUTER_BOUND('',#70,.T.);
#46=FACE_OUTER_BOUND('',#72,.T.);
#47=EDGE_LOOP('',(#205,#206,#207));
#48=EDGE_LOOP('',(#208));
#49=EDGE_LOOP('',(#209,#210,#211,#212));
#50=EDGE_LOOP('',(#213,#214,#215,#216,#217,#218));
#51=EDGE_LOOP('',(#219));
#52=EDGE_LOOP('',(#220));
#53=EDGE_LOOP('',(#221,#222,#223,#224,#225,#226,#227,#228));
#54=EDGE_LOOP('',(#229,#230,#231,#232));
#55=EDGE_LOOP('',(#233,#234,#235,#236));
#56=EDGE_LOOP('',(#237));
#57=EDGE_LOOP('',(#238));
#58=EDGE_LOOP('',(#239,#240,#241,#242));
#59=EDGE_LOOP('',(#243,#244,#245,#246));
#60=EDGE_LOOP('',(#247,#248,#249,#250));
#61=EDGE_LOOP('',(#251,#252,#253,#254,#255,#256));
#62=EDGE_LOOP('',(#257,#258,#259,#260,#261,#262));
#63=EDGE_LOOP('',(#263));
#64=EDGE_LOOP('',(#264));
#65=EDGE_LOOP('',(#265,#266,#267,#268));
#66=EDGE_LOOP('',(#269,#270,#271,#272));
#67=EDGE_LOOP('',(#273));
#68=EDGE_LOOP('',(#274));
#69=EDGE_LOOP('',(#275,#276,#277,#278));
#70=EDGE_LOOP('',(#279));
#71=EDGE_LOOP('',(#280));
#72=EDGE_LOOP('',(#281,#282,#283,#284));
#73=CIRCLE('',#330,21.5);
#74=CIRCLE('',#331,21.5);
#75=CIRCLE('',#332,4.5);
#76=CIRCLE('',#334,4.5);
#77=CIRCLE('',#336,21.5);
#78=CIRCLE('',#337,21.5);
#79=CIRCLE('',#342,6.5);
#80=CIRCLE('',#343,6.5);
#81=CIRCLE('',#349,3.5);
#82=CIRCLE('',#350,3.5);
#83=CIRCLE('',#352,3.5);
#84=CIRCLE('',#354,3.5);
#85=CIRCLE('',#356,6.5);
#86=CIRCLE('',#359,6.5);
#87=LINE('',#457,#113);
#88=LINE('',#465,#114);
#89=LINE('',#470,#115);
#90=LINE('',#475,#116);
#91=LINE('',#477,#117);
#92=LINE('',#479,#118);
#93=LINE('',#481,#119);
#94=LINE('',#483,#120);
#95=LINE('',#485,#121);
#96=LINE('',#486,#122);
#97=LINE('',#489,#123);
#98=LINE('',#491,#124);
#99=LINE('',#492,#125);
#100=LINE('',#495,#126);
#101=LINE('',#496,#127);
#102=LINE('',#503,#128);
#103=LINE('',#504,#129);
#104=LINE('',#507,#130);
#105=LINE('',#508,#131);
#106=LINE('',#511,#132);
#107=LINE('',#512,#133);
#108=LINE('',#514,#134);
#109=LINE('',#522,#135);
#110=LINE('',#526,#136);
#111=LINE('',#532,#137);
#112=LINE('',#537,#138);
#113=VECTOR('',#365,10.);
#114=VECTOR('',#374,4.5);
#115=VECTOR('',#381,21.5);
#116=VECTOR('',#388,10.);
#117=VECTOR('',#389,10.);
#118=VECTOR('',#390,10.);
#119=VECTOR('',#391,10.);
#120=VECTOR('',#392,10.);
#121=VECTOR('',#393,10.);
#122=VECTOR('',#394,10.);
#123=VECTOR('',#397,10.);
#124=VECTOR('',#398,10.);
#125=VECTOR('',#399,10.);
#126=VECTOR('',#402,10.);
#127=VECTOR('',#403,10.);
#128=VECTOR('',#410,10.);
#129=VECTOR('',#411,10.);
#130=VECTOR('',#414,10.);
#131=VECTOR('',#415,10.);
#132=VECTOR('',#418,10.);
#133=VECTOR('',#419,10.);
#134=VECTOR('',#422,10.);
#135=VECTOR('',#431,3.5);
#136=VECTOR('',#436,3.5);
#137=VECTOR('',#445,6.5);
#138=VECTOR('',#452,6.5);
#139=VERTEX_POINT('',#455);
#140=VERTEX_POINT('',#456);
#141=VERTEX_POINT('',#458);
#142=VERTEX_POINT('',#461);
#143=VERTEX_POINT('',#464);
#144=VERTEX_POINT('',#468);
#145=VERTEX_POINT('',#474);
#146=VERTEX_POINT('',#476);
#147=VERTEX_POINT('',#478);
#148=VERTEX_POINT('',#480);
#149=VERTEX_POINT('',#482);
#150=VERTEX_POINT('',#484);
#151=VERTEX_POINT('',#488);
#152=VERTEX_POINT('',#490);
#153=VERTEX_POINT('',#494);
#154=VERTEX_POINT('',#497);
#155=VERTEX_POINT('',#499);
#156=VERTEX_POINT('',#502);
#157=VERTEX_POINT('',#506);
#158=VERTEX_POINT('',#510);
#159=VERTEX_POINT('',#516);
#160=VERTEX_POINT('',#518);
#161=VERTEX_POINT('',#521);
#162=VERTEX_POINT('',#525);
#163=VERTEX_POINT('',#529);
#164=VERTEX_POINT('',#534);
#165=EDGE_CURVE('',#139,#140,#87,.T.);
#166=EDGE_CURVE('',#140,#141,#73,.T.);
#167=EDGE_CURVE('',#141,#139,#74,.T.);
#168=EDGE_CURVE('',#142,#142,#75,.T.);
#169=EDGE_CURVE('',#142,#143,#88,.T.);
#170=EDGE_CURVE('',#143,#143,#76,.T.);
#171=EDGE_CURVE('',#144,#144,#77,.T.);
#172=EDGE_CURVE('',#144,#141,#89,.T.);
#173=EDGE_CURVE('',#139,#140,#78,.T.);
#174=EDGE_CURVE('',#140,#145,#90,.T.);
#175=EDGE_CURVE('',#145,#146,#91,.T.);
#176=EDGE_CURVE('',#147,#146,#92,.T.);
#177=EDGE_CURVE('',#148,#147,#93,.T.);
#178=EDGE_CURVE('',#149,#148,#94,.T.);
#179=EDGE_CURVE('',#149,#150,#95,.T.);
#180=EDGE_CURVE('',#150,#139,#96,.T.);
#181=EDGE_CURVE('',#148,#151,#97,.T.);
#182=EDGE_CURVE('',#151,#152,#98,.T.);
#183=EDGE_CURVE('',#152,#149,#99,.T.);
#184=EDGE_CURVE('',#153,#147,#100,.T.);
#185=EDGE_CURVE('',#151,#153,#101,.T.);
#186=EDGE_CURVE('',#154,#154,#79,.T.);
#187=EDGE_CURVE('',#155,#155,#80,.T.);
#188=EDGE_CURVE('',#156,#153,#102,.T.);
#189=EDGE_CURVE('',#146,#156,#103,.T.);
#190=EDGE_CURVE('',#157,#145,#104,.T.);
#191=EDGE_CURVE('',#156,#157,#105,.T.);
#192=EDGE_CURVE('',#158,#152,#106,.T.);
#193=EDGE_CURVE('',#150,#158,#107,.T.);
#194=EDGE_CURVE('',#158,#157,#108,.T.);
#195=EDGE_CURVE('',#159,#159,#81,.T.);
#196=EDGE_CURVE('',#160,#160,#82,.T.);
#197=EDGE_CURVE('',#160,#161,#109,.T.);
#198=EDGE_CURVE('',#161,#161,#83,.T.);
#199=EDGE_CURVE('',#159,#162,#110,.T.);
#200=EDGE_CURVE('',#162,#162,#84,.T.);
#201=EDGE_CURVE('',#163,#163,#85,.T.);
#202=EDGE_CURVE('',#155,#163,#111,.T.);
#203=EDGE_CURVE('',#164,#164,#86,.T.);
#204=EDGE_CURVE('',#154,#164,#112,.T.);
#205=ORIENTED_EDGE('',*,*,#165,.T.);
#206=ORIENTED_EDGE('',*,*,#166,.T.);
#207=ORIENTED_EDGE('',*,*,#167,.T.);
#208=ORIENTED_EDGE('',*,*,#168,.T.);
#209=ORIENTED_EDGE('',*,*,#168,.F.);
#210=ORIENTED_EDGE('',*,*,#169,.T.);
#211=ORIENTED_EDGE('',*,*,#170,.F.);
#212=ORIENTED_EDGE('',*,*,#169,.F.);
#213=ORIENTED_EDGE('',*,*,#171,.F.);
#214=ORIENTED_EDGE('',*,*,#172,.T.);
#215=ORIENTED_EDGE('',*,*,#166,.F.);
#216=ORIENTED_EDGE('',*,*,#173,.F.);
#217=ORIENTED_EDGE('',*,*,#167,.F.);
#218=ORIENTED_EDGE('',*,*,#172,.F.);
#219=ORIENTED_EDGE('',*,*,#171,.T.);
#220=ORIENTED_EDGE('',*,*,#170,.T.);
#221=ORIENTED_EDGE('',*,*,#173,.T.);
#222=ORIENTED_EDGE('',*,*,#174,.T.);
#223=ORIENTED_EDGE('',*,*,#175,.T.);
#224=ORIENTED_EDGE('',*,*,#176,.F.);
#225=ORIENTED_EDGE('',*,*,#177,.F.);
#226=ORIENTED_EDGE('',*,*,#178,.F.);
#227=ORIENTED_EDGE('',*,*,#179,.T.);
#228=ORIENTED_EDGE('',*,*,#180,.T.);
#229=ORIENTED_EDGE('',*,*,#178,.T.);
#230=ORIENTED_EDGE('',*,*,#181,.T.);
#231=ORIENTED_EDGE('',*,*,#182,.T.);
#232=ORIENTED_EDGE('',*,*,#183,.T.);
#233=ORIENTED_EDGE('',*,*,#181,.F.);
#234=ORIENTED_EDGE('',*,*,#177,.T.);
#235=ORIENTED_EDGE('',*,*,#184,.F.);
#236=ORIENTED_EDGE('',*,*,#185,.F.);
#237=ORIENTED_EDGE('',*,*,#186,.T.);
#238=ORIENTED_EDGE('',*,*,#187,.T.);
#239=ORIENTED_EDGE('',*,*,#188,.T.);
#240=ORIENTED_EDGE('',*,*,#184,.T.);
#241=ORIENTED_EDGE('',*,*,#176,.T.);
#242=ORIENTED_EDGE('',*,*,#189,.T.);
#243=ORIENTED_EDGE('',*,*,#189,.F.);
#244=ORIENTED_EDGE('',*,*,#175,.F.);
#245=ORIENTED_EDGE('',*,*,#190,.F.);
#246=ORIENTED_EDGE('',*,*,#191,.F.);
#247=ORIENTED_EDGE('',*,*,#183,.F.);
#248=ORIENTED_EDGE('',*,*,#192,.F.);
#249=ORIENTED_EDGE('',*,*,#193,.F.);
#250=ORIENTED_EDGE('',*,*,#179,.F.);
#251=ORIENTED_EDGE('',*,*,#182,.F.);
#252=ORIENTED_EDGE('',*,*,#185,.T.);
#253=ORIENTED_EDGE('',*,*,#188,.F.);
#254=ORIENTED_EDGE('',*,*,#191,.T.);
#255=ORIENTED_EDGE('',*,*,#194,.F.);
#256=ORIENTED_EDGE('',*,*,#192,.T.);
#257=ORIENTED_EDGE('',*,*,#180,.F.);
#258=ORIENTED_EDGE('',*,*,#193,.T.);
#259=ORIENTED_EDGE('',*,*,#194,.T.);
#260=ORIENTED_EDGE('',*,*,#190,.T.);
#261=ORIENTED_EDGE('',*,*,#174,.F.);
#262=ORIENTED_EDGE('',*,*,#165,.F.);
#263=ORIENTED_EDGE('',*,*,#195,.T.);
#264=ORIENTED_EDGE('',*,*,#196,.T.);
#265=ORIENTED_EDGE('',*,*,#196,.F.);
#266=ORIENTED_EDGE('',*,*,#197,.T.);
#267=ORIENTED_EDGE('',*,*,#198,.T.);
#268=ORIENTED_EDGE('',*,*,#197,.F.);
#269=ORIENTED_EDGE('',*,*,#195,.F.);
#270=ORIENTED_EDGE('',*,*,#199,.T.);
#271=ORIENTED_EDGE('',*,*,#200,.T.);
#272=ORIENTED_EDGE('',*,*,#199,.F.);
#273=ORIENTED_EDGE('',*,*,#201,.F.);
#274=ORIENTED_EDGE('',*,*,#200,.F.);
#275=ORIENTED_EDGE('',*,*,#187,.F.);
#276=ORIENTED_EDGE('',*,*,#202,.T.);
#277=ORIENTED_EDGE('',*,*,#201,.T.);
#278=ORIENTED_EDGE('',*,*,#202,.F.);
#279=ORIENTED_EDGE('',*,*,#203,.F.);
#280=ORIENTED_EDGE('',*,*,#198,.F.);
#281=ORIENTED_EDGE('',*,*,#186,.F.);
#282=ORIENTED_EDGE('',*,*,#204,.T.);
#283=ORIENTED_EDGE('',*,*,#203,.T.);
#284=ORIENTED_EDGE('',*,*,#204,.F.);
#285=PLANE('',#329);
#286=PLANE('',#338);
#287=PLANE('',#339);
#288=PLANE('',#340);
#289=PLANE('',#341);
#290=PLANE('',#344);
#291=PLANE('',#345);
#292=PLANE('',#346);
#293=PLANE('',#347);
#294=PLANE('',#348);
#295=PLANE('',#355);
#296=PLANE('',#358);
#297=ADVANCED_FACE('',(#29,#21),#285,.F.);
#298=ADVANCED_FACE('',(#30),#15,.F.);
#299=ADVANCED_FACE('',(#31),#16,.T.);
#300=ADVANCED_FACE('',(#32,#22),#286,.T.);
#301=ADVANCED_FACE('',(#33),#287,.T.);
#302=ADVANCED_FACE('',(#34),#288,.T.);
#303=ADVANCED_FACE('',(#35,#23,#24),#289,.T.);
#304=ADVANCED_FACE('',(#36),#290,.T.);
#305=ADVANCED_FACE('',(#37),#291,.T.);
#306=ADVANCED_FACE('',(#38),#292,.T.);
#307=ADVANCED_FACE('',(#39),#293,.T.);
#308=ADVANCED_FACE('',(#40,#25,#26),#294,.T.);
#309=ADVANCED_FACE('',(#41),#17,.F.);
#310=ADVANCED_FACE('',(#42),#18,.F.);
#311=ADVANCED_FACE('',(#43,#27),#295,.F.);
#312=ADVANCED_FACE('',(#44),#19,.F.);
#313=ADVANCED_FACE('',(#45,#28),#296,.F.);
#314=ADVANCED_FACE('',(#46),#20,.F.);
#315=CLOSED_SHELL('',(#297,#298,#299,#300,#301,#302,#303,#304,#305,#306,
#307,#308,#309,#310,#311,#312,#313,#314));
#316=DERIVED_UNIT_ELEMENT(#318,1.);
#317=DERIVED_UNIT_ELEMENT(#543,3.);
#318=(
MASS_UNIT()
NAMED_UNIT(*)
SI_UNIT(.KILO.,.GRAM.)
);
#319=DERIVED_UNIT((#316,#317));
#320=MEASURE_REPRESENTATION_ITEM('density measure',
POSITIVE_RATIO_MEASURE(7850.),#319);
#321=PROPERTY_DEFINITION_REPRESENTATION(#326,#323);
#322=PROPERTY_DEFINITION_REPRESENTATION(#327,#324);
#323=REPRESENTATION('material name',(#325),#540);
#324=REPRESENTATION('density',(#320),#540);
#325=DESCRIPTIVE_REPRESENTATION_ITEM('Steel','Steel');
#326=PROPERTY_DEFINITION('material property','material name',#550);
#327=PROPERTY_DEFINITION('material property','density of part',#550);
#328=AXIS2_PLACEMENT_3D('placement',#453,#361,#362);
#329=AXIS2_PLACEMENT_3D('',#454,#363,#364);
#330=AXIS2_PLACEMENT_3D('',#459,#366,#367);
#331=AXIS2_PLACEMENT_3D('',#460,#368,#369);
#332=AXIS2_PLACEMENT_3D('',#462,#370,#371);
#333=AXIS2_PLACEMENT_3D('',#463,#372,#373);
#334=AXIS2_PLACEMENT_3D('',#466,#375,#376);
#335=AXIS2_PLACEMENT_3D('',#467,#377,#378);
#336=AXIS2_PLACEMENT_3D('',#469,#379,#380);
#337=AXIS2_PLACEMENT_3D('',#471,#382,#383);
#338=AXIS2_PLACEMENT_3D('',#472,#384,#385);
#339=AXIS2_PLACEMENT_3D('',#473,#386,#387);
#340=AXIS2_PLACEMENT_3D('',#487,#395,#396);
#341=AXIS2_PLACEMENT_3D('',#493,#400,#401);
#342=AXIS2_PLACEMENT_3D('',#498,#404,#405);
#343=AXIS2_PLACEMENT_3D('',#500,#406,#407);
#344=AXIS2_PLACEMENT_3D('',#501,#408,#409);
#345=AXIS2_PLACEMENT_3D('',#505,#412,#413);
#346=AXIS2_PLACEMENT_3D('',#509,#416,#417);
#347=AXIS2_PLACEMENT_3D('',#513,#420,#421);
#348=AXIS2_PLACEMENT_3D('',#515,#423,#424);
#349=AXIS2_PLACEMENT_3D('',#517,#425,#426);
#350=AXIS2_PLACEMENT_3D('',#519,#427,#428);
#351=AXIS2_PLACEMENT_3D('',#520,#429,#430);
#352=AXIS2_PLACEMENT_3D('',#523,#432,#433);
#353=AXIS2_PLACEMENT_3D('',#524,#434,#435);
#354=AXIS2_PLACEMENT_3D('',#527,#437,#438);
#355=AXIS2_PLACEMENT_3D('',#528,#439,#440);
#356=AXIS2_PLACEMENT_3D('',#530,#441,#442);
#357=AXIS2_PLACEMENT_3D('',#531,#443,#444);
#358=AXIS2_PLACEMENT_3D('',#533,#446,#447);
#359=AXIS2_PLACEMENT_3D('',#535,#448,#449);
#360=AXIS2_PLACEMENT_3D('',#536,#450,#451);
#361=DIRECTION('axis',(0.,0.,1.));
#362=DIRECTION('refdir',(1.,0.,0.));
#363=DIRECTION('center_axis',(0.,0.,1.));
#364=DIRECTION('ref_axis',(1.,0.,0.));
#365=DIRECTION('',(0.,-1.,0.));
#366=DIRECTION('center_axis',(0.,0.,-1.));
#367=DIRECTION('ref_axis',(1.,0.,0.));
#368=DIRECTION('center_axis',(0.,0.,-1.));
#369=DIRECTION('ref_axis',(1.,0.,0.));
#370=DIRECTION('center_axis',(0.,0.,1.));
#371=DIRECTION('ref_axis',(1.,0.,0.));
#372=DIRECTION('center_axis',(0.,0.,1.));
#373=DIRECTION('ref_axis',(1.,0.,0.));
#374=DIRECTION('',(0.,0.,1.));
#375=DIRECTION('center_axis',(0.,0.,-1.));
#376=DIRECTION('ref_axis',(1.,0.,0.));
#377=DIRECTION('center_axis',(0.,0.,1.));
#378=DIRECTION('ref_axis',(1.,0.,0.));
#379=DIRECTION('center_axis',(0.,0.,1.));
#380=DIRECTION('ref_axis',(1.,0.,0.));
#381=DIRECTION('',(0.,0.,-1.));
#382=DIRECTION('center_axis',(0.,0.,-1.));
#383=DIRECTION('ref_axis',(1.,0.,0.));
#384=DIRECTION('center_axis',(0.,0.,1.));
#385=DIRECTION('ref_axis',(1.,0.,0.));
#386=DIRECTION('center_axis',(0.,0.,1.));
#387=DIRECTION('ref_axis',(-1.,0.,0.));
#388=DIRECTION('',(0.,-1.,0.));
#389=DIRECTION('',(1.,0.,0.));
#390=DIRECTION('',(-0.707106781186546,-0.707106781186548,0.));
#391=DIRECTION('',(0.,-1.,0.));
#392=DIRECTION('',(0.707106781186548,-0.707106781186548,0.));
#393=DIRECTION('',(-1.,0.,0.));
#394=DIRECTION('',(0.,-1.,0.));
#395=DIRECTION('center_axis',(0.707106781186548,0.707106781186548,0.));
#396=DIRECTION('ref_axis',(0.,0.,-1.));
#397=DIRECTION('',(0.,0.,-1.));
#398=DIRECTION('',(-0.707106781186547,0.707106781186547,0.));
#399=DIRECTION('',(0.,0.,1.));
#400=DIRECTION('center_axis',(1.,0.,0.));
#401=DIRECTION('ref_axis',(0.,0.,1.));
#402=DIRECTION('',(0.,0.,1.));
#403=DIRECTION('',(0.,-1.,0.));
#404=DIRECTION('center_axis',(-1.,0.,0.));
#405=DIRECTION('ref_axis',(0.,-1.,0.));
#406=DIRECTION('center_axis',(-1.,0.,0.));
#407=DIRECTION('ref_axis',(0.,-1.,0.));
#408=DIRECTION('center_axis',(0.707106781186549,-0.707106781186547,0.));
#409=DIRECTION('ref_axis',(0.,0.,-1.));
#410=DIRECTION('',(0.707106781186546,0.707106781186548,0.));
#411=DIRECTION('',(0.,0.,-1.));
#412=DIRECTION('center_axis',(0.,-1.,0.));
#413=DIRECTION('ref_axis',(0.,0.,-1.));
#414=DIRECTION('',(-1.38777878078145E-16,0.,1.));
#415=DIRECTION('',(-1.,0.,0.));
#416=DIRECTION('center_axis',(0.,1.,0.));
#417=DIRECTION('ref_axis',(-1.,0.,0.));
#418=DIRECTION('',(1.,0.,0.));
#419=DIRECTION('',(1.38777878078145E-16,0.,-1.));
#420=DIRECTION('center_axis',(0.,0.,-1.));
#421=DIRECTION('ref_axis',(1.,0.,0.));
#422=DIRECTION('',(0.,-1.,0.));
#423=DIRECTION('center_axis',(-1.,0.,-1.38777878078145E-16));
#424=DIRECTION('ref_axis',(1.38777878078145E-16,0.,-1.));
#425=DIRECTION('center_axis',(1.,0.,1.38777878078145E-16));
#426=DIRECTION('ref_axis',(0.,-1.,0.));
#427=DIRECTION('center_axis',(1.,0.,1.38777878078145E-16));
#428=DIRECTION('ref_axis',(0.,-1.,0.));
#429=DIRECTION('center_axis',(1.,0.,1.52923281628809E-16));
#430=DIRECTION('ref_axis',(0.,-1.,0.));
#431=DIRECTION('',(1.,0.,1.52923281628809E-16));
#432=DIRECTION('center_axis',(1.,0.,1.38777878078145E-16));
#433=DIRECTION('ref_axis',(0.,-1.,0.));
#434=DIRECTION('center_axis',(1.,0.,1.52923281628809E-16));
#435=DIRECTION('ref_axis',(0.,-1.,0.));
#436=DIRECTION('',(1.,0.,1.52923281628809E-16));
#437=DIRECTION('center_axis',(1.,0.,1.38777878078145E-16));
#438=DIRECTION('ref_axis',(0.,-1.,0.));
#439=DIRECTION('center_axis',(-1.,0.,-1.38777878078145E-16));
#440=DIRECTION('ref_axis',(0.,-1.,0.));
#441=DIRECTION('center_axis',(-1.,0.,-1.38777878078145E-16));
#442=DIRECTION('ref_axis',(0.,-1.,0.));
#443=DIRECTION('center_axis',(-1.,0.,-1.11022302462516E-16));
#444=DIRECTION('ref_axis',(0.,-1.,0.));
#445=DIRECTION('',(-1.,0.,-1.11022302462516E-16));
#446=DIRECTION('center_axis',(-1.,0.,-1.38777878078145E-16));
#447=DIRECTION('ref_axis',(0.,-1.,0.));
#448=DIRECTION('center_axis',(-1.,0.,-1.38777878078145E-16));
#449=DIRECTION('ref_axis',(0.,-1.,0.));
#450=DIRECTION('center_axis',(-1.,0.,-1.11022302462516E-16));
#451=DIRECTION('ref_axis',(0.,-1.,0.));
#452=DIRECTION('',(-1.,0.,-1.11022302462516E-16));
#453=CARTESIAN_POINT('',(0.,0.,0.));
#454=CARTESIAN_POINT('Origin',(8.,1.99840144432528E-14,0.));
#455=CARTESIAN_POINT('',(4.49999999999999,21.0237960416286,0.));
#456=CARTESIAN_POINT('',(4.49999999999999,-21.0237960416286,0.));
#457=CARTESIAN_POINT('',(4.49999999999999,40.,0.));
#458=CARTESIAN_POINT('',(-21.5,-2.63299061816681E-15,0.));
#459=CARTESIAN_POINT('Origin',(0.,0.,0.));
#460=CARTESIAN_POINT('Origin',(0.,0.,0.));
#461=CARTESIAN_POINT('',(-10.,1.83146594536188E-14,0.));
#462=CARTESIAN_POINT('Origin',(-5.5,1.77635683940025E-14,0.));
#463=CARTESIAN_POINT('Origin',(-5.5,1.77635683940025E-14,0.));
#464=CARTESIAN_POINT('',(-10.,1.83146594536188E-14,20.));
#465=CARTESIAN_POINT('',(-10.,1.72124773343862E-14,0.));
#466=CARTESIAN_POINT('Origin',(-5.5,1.77635683940025E-14,20.));
#467=CARTESIAN_POINT('Origin',(0.,0.,0.));
#468=CARTESIAN_POINT('',(-21.5,-2.63299061816681E-15,20.));
#469=CARTESIAN_POINT('Origin',(0.,0.,20.));
#470=CARTESIAN_POINT('',(-21.5,-2.63299061816681E-15,0.));
#471=CARTESIAN_POINT('Origin',(0.,0.,0.));
#472=CARTESIAN_POINT('Origin',(0.,0.,20.));
#473=CARTESIAN_POINT('Origin',(37.5,40.,0.));
#474=CARTESIAN_POINT('',(4.49999999999999,-40.,0.));
#475=CARTESIAN_POINT('',(4.49999999999999,40.,0.));
#476=CARTESIAN_POINT('',(34.5,-40.,0.));
#477=CARTESIAN_POINT('',(29.25,-40.,0.));
#478=CARTESIAN_POINT('',(37.5,-37.,0.));
#479=CARTESIAN_POINT('',(56.,-18.4999999999999,0.));
#480=CARTESIAN_POINT('',(37.5,37.,0.));
#481=CARTESIAN_POINT('',(37.5,40.,0.));
#482=CARTESIAN_POINT('',(34.5,40.,0.));
#483=CARTESIAN_POINT('',(36.,38.5,0.));
#484=CARTESIAN_POINT('',(4.49999999999999,40.,0.));
#485=CARTESIAN_POINT('',(37.5,40.,0.));
#486=CARTESIAN_POINT('',(4.49999999999999,40.,0.));
#487=CARTESIAN_POINT('Origin',(36.,38.5,-15.));
#488=CARTESIAN_POINT('',(37.5,37.,-20.));
#489=CARTESIAN_POINT('',(37.5,37.,-15.));
#490=CARTESIAN_POINT('',(34.5,40.,-20.));
#491=CARTESIAN_POINT('',(27.75,46.75,-20.));
#492=CARTESIAN_POINT('',(34.5,40.,-15.));
#493=CARTESIAN_POINT('Origin',(37.5,40.,-20.));
#494=CARTESIAN_POINT('',(37.5,-37.,-20.));
#495=CARTESIAN_POINT('',(37.5,-37.,-15.));
#496=CARTESIAN_POINT('',(37.5,40.,-20.));
#497=CARTESIAN_POINT('',(37.5,27.,-9.99999999999999));
#498=CARTESIAN_POINT('Origin',(37.5,20.5,-9.99999999999999));
#499=CARTESIAN_POINT('',(37.5,-14.,-9.99999999999999));
#500=CARTESIAN_POINT('Origin',(37.5,-20.5,-9.99999999999999));
#501=CARTESIAN_POINT('Origin',(36.,-38.5,-15.));
#502=CARTESIAN_POINT('',(34.5,-40.,-20.));
#503=CARTESIAN_POINT('',(47.75,-26.7499999999999,-20.));
#504=CARTESIAN_POINT('',(34.5,-40.,-15.));
#505=CARTESIAN_POINT('Origin',(21.,-40.,-10.));
#506=CARTESIAN_POINT('',(4.5,-40.,-20.));
#507=CARTESIAN_POINT('',(4.49999999999999,-40.,-5.));
#508=CARTESIAN_POINT('',(12.75,-40.,-20.));
#509=CARTESIAN_POINT('Origin',(21.,40.,-10.));
#510=CARTESIAN_POINT('',(4.5,40.,-20.));
#511=CARTESIAN_POINT('',(4.5,40.,-20.));
#512=CARTESIAN_POINT('',(4.49999999999999,40.,0.));
#513=CARTESIAN_POINT('Origin',(4.5,40.,-20.));
#514=CARTESIAN_POINT('',(4.5,40.,-20.));
#515=CARTESIAN_POINT('Origin',(4.49999999999999,40.,0.));
#516=CARTESIAN_POINT('',(4.5,-17.,-9.99999999999999));
#517=CARTESIAN_POINT('Origin',(4.49999999999999,-20.5,-9.99999999999999));
#518=CARTESIAN_POINT('',(4.5,24.,-9.99999999999999));
#519=CARTESIAN_POINT('Origin',(4.49999999999999,20.5,-9.99999999999999));
#520=CARTESIAN_POINT('Origin',(4.5,20.5,-9.99999999999999));
#521=CARTESIAN_POINT('',(27.5,24.,-9.99999999999999));
#522=CARTESIAN_POINT('',(4.5,24.,-9.99999999999999));
#523=CARTESIAN_POINT('Origin',(27.5,20.5,-9.99999999999999));
#524=CARTESIAN_POINT('Origin',(4.5,-20.5,-9.99999999999999));
#525=CARTESIAN_POINT('',(27.5,-17.,-9.99999999999999));
#526=CARTESIAN_POINT('',(4.5,-17.,-9.99999999999999));
#527=CARTESIAN_POINT('Origin',(27.5,-20.5,-9.99999999999999));
#528=CARTESIAN_POINT('Origin',(27.5,-20.5,-9.99999999999999));
#529=CARTESIAN_POINT('',(27.5,-14.,-9.99999999999999));
#530=CARTESIAN_POINT('Origin',(27.5,-20.5,-9.99999999999999));
#531=CARTESIAN_POINT('Origin',(37.5,-20.5,-9.99999999999999));
#532=CARTESIAN_POINT('',(37.5,-14.,-9.99999999999999));
#533=CARTESIAN_POINT('Origin',(27.5,20.5,-9.99999999999999));
#534=CARTESIAN_POINT('',(27.5,27.,-9.99999999999999));
#535=CARTESIAN_POINT('Origin',(27.5,20.5,-9.99999999999999));
#536=CARTESIAN_POINT('Origin',(37.5,20.5,-9.99999999999999));
#537=CARTESIAN_POINT('',(37.5,27.,-9.99999999999999));
#538=UNCERTAINTY_MEASURE_WITH_UNIT(LENGTH_MEASURE(0.01),#542,
'DISTANCE_ACCURACY_VALUE',
'Maximum model space distance between geometric entities at asserted c
onnectivities');
#539=UNCERTAINTY_MEASURE_WITH_UNIT(LENGTH_MEASURE(0.01),#542,
'DISTANCE_ACCURACY_VALUE',
'Maximum model space distance between geometric entities at asserted c
onnectivities');
#540=(
GEOMETRIC_REPRESENTATION_CONTEXT(3)
GLOBAL_UNCERTAINTY_ASSIGNED_CONTEXT((#538))
GLOBAL_UNIT_ASSIGNED_CONTEXT((#542,#544,#545))
REPRESENTATION_CONTEXT('','3D')
);
#541=(
GEOMETRIC_REPRESENTATION_CONTEXT(3)
GLOBAL_UNCERTAINTY_ASSIGNED_CONTEXT((#539))
GLOBAL_UNIT_ASSIGNED_CONTEXT((#542,#544,#545))
REPRESENTATION_CONTEXT('','3D')
);
#542=(
LENGTH_UNIT()
NAMED_UNIT(*)
SI_UNIT(.MILLI.,.METRE.)
);
#543=(
LENGTH_UNIT()
NAMED_UNIT(*)
SI_UNIT($,.METRE.)
);
#544=(
NAMED_UNIT(*)
PLANE_ANGLE_UNIT()
SI_UNIT($,.RADIAN.)
);
#545=(
NAMED_UNIT(*)
SI_UNIT($,.STERADIAN.)
SOLID_ANGLE_UNIT()
);
#546=SHAPE_DEFINITION_REPRESENTATION(#547,#548);
#547=PRODUCT_DEFINITION_SHAPE('',$,#550);
#548=SHAPE_REPRESENTATION('',(#328),#540);
#549=PRODUCT_DEFINITION_CONTEXT('part definition',#554,'design');
#550=PRODUCT_DEFINITION('Adaptateur','Adaptateur v2',#551,#549);
#551=PRODUCT_DEFINITION_FORMATION('',$,#556);
#552=PRODUCT_RELATED_PRODUCT_CATEGORY('Adaptateur v2','Adaptateur v2',(#556));
#553=APPLICATION_PROTOCOL_DEFINITION('international standard',
'automotive_design',2009,#554);
#554=APPLICATION_CONTEXT(
'Core Data for Automotive Mechanical Design Process');
#555=PRODUCT_CONTEXT('part definition',#554,'mechanical');
#556=PRODUCT('Adaptateur','Adaptateur v2',$,(#555));
#557=PRESENTATION_STYLE_ASSIGNMENT((#558));
#558=SURFACE_STYLE_USAGE(.BOTH.,#559);
#559=SURFACE_SIDE_STYLE('',(#560));
#560=SURFACE_STYLE_FILL_AREA(#561);
#561=FILL_AREA_STYLE('Steel - Satin',(#562));
#562=FILL_AREA_STYLE_COLOUR('Steel - Satin',#563);
#563=COLOUR_RGB('Steel - Satin',0.627450980392157,0.627450980392157,0.627450980392157);
ENDSEC;
END-ISO-10303-21;
