ISO-10303-21;
HEADER;
FILE_DESCRIPTION(('CATIA V6 STEP','CAx-IF Rec.Pracs.--- Model Styling and Organization---1.4--- 2014-01-23','CAx-IF Rec.Pracs.---3D Tessellated Data Validation Properties---0.5---2014-09-14'),'2;1');

FILE_NAME('\\\\?\\C:\\Users\\c.thizy\\OneDrive - ESTIA\\Projet cadre v\X2\00E9\X0\lo\\Ve entaille 90.stp','2020-11-24T11:51:42+00:00',('none'),('none'),'3DEXPERIENCE Platform3DEXPERIENCE R2019x HotFix 5','3DEXPERIENCE Platform STEP AP242 v1','none');

FILE_SCHEMA(('AP242_MANAGED_MODEL_BASED_3D_ENGINEERING_MIM_LF  {1 0 10303 442 1 1 4}'));

ENDSEC;
DATA;
#16=PRODUCT('Forme 3D00064474','Forme 3D00064474','',(#2)) ;
#2=PRODUCT_CONTEXT(' ',#1,'mechanical') ;
#1=APPLICATION_CONTEXT('managed model based 3d engineering') ;
#18=PRODUCT_DEFINITION('Forme 3D00064474',' ',#17,#3) ;
#3=PRODUCT_DEFINITION_CONTEXT('part definition',#1,' ') ;
#19=PRODUCT_DEFINITION_SHAPE(' ',' ',#18) ;
#528=MECHANICAL_DESIGN_GEOMETRIC_PRESENTATION_REPRESENTATION(' ',(#29),#12) ;
#529=MECHANICAL_DESIGN_GEOMETRIC_PRESENTATION_REPRESENTATION(' ',(#525),#12) ;
#5=PRODUCT_CATEGORY('part','specification') ;
#13=SHAPE_REPRESENTATION(' ',(#15,#21),#12) ;
#14=CARTESIAN_POINT('',(0.,0.,0.)) ;
#31=CARTESIAN_POINT('Axis2P3D Location',(0.,62.,17.)) ;
#36=CARTESIAN_POINT('Line Origine',(0.,62.,17.)) ;
#40=CARTESIAN_POINT('Vertex',(12.5,62.,17.)) ;
#42=CARTESIAN_POINT('Vertex',(-12.5,62.,17.)) ;
#45=CARTESIAN_POINT('Line Origine',(-12.5,66.,17.)) ;
#49=CARTESIAN_POINT('Vertex',(-12.5,70.,17.)) ;
#52=CARTESIAN_POINT('Line Origine',(0.,70.,17.)) ;
#56=CARTESIAN_POINT('Vertex',(12.5,70.,17.)) ;
#59=CARTESIAN_POINT('Line Origine',(12.5,66.,17.)) ;
#71=CARTESIAN_POINT('Axis2P3D Location',(12.5,0.,0.)) ;
#76=CARTESIAN_POINT('Line Origine',(12.5,70.,29.75)) ;
#80=CARTESIAN_POINT('Vertex',(12.5,70.,42.5)) ;
#83=CARTESIAN_POINT('Line Origine',(12.5,53.75,58.75)) ;
#87=CARTESIAN_POINT('Vertex',(12.5,37.5,75.)) ;
#90=CARTESIAN_POINT('Line Origine',(12.5,53.75,91.25)) ;
#94=CARTESIAN_POINT('Vertex',(12.5,70.,107.5)) ;
#97=CARTESIAN_POINT('Line Origine',(12.5,70.,116.25)) ;
#101=CARTESIAN_POINT('Vertex',(12.5,70.,125.)) ;
#104=CARTESIAN_POINT('Line Origine',(12.5,35.,125.)) ;
#108=CARTESIAN_POINT('Vertex',(12.5,0.,125.)) ;
#111=CARTESIAN_POINT('Line Origine',(12.5,0.,71.)) ;
#115=CARTESIAN_POINT('Vertex',(12.5,-7.1054273576E-15,17.)) ;
#118=CARTESIAN_POINT('Line Origine',(12.5,4.,17.)) ;
#122=CARTESIAN_POINT('Vertex',(12.5,8.,17.)) ;
#125=CARTESIAN_POINT('Line Origine',(12.5,8.,12.)) ;
#129=CARTESIAN_POINT('Vertex',(12.5,8.,7.)) ;
#132=CARTESIAN_POINT('Line Origine',(12.5,4.,7.)) ;
#136=CARTESIAN_POINT('Vertex',(12.5,0.,7.)) ;
#139=CARTESIAN_POINT('Line Origine',(12.5,0.,3.5)) ;
#143=CARTESIAN_POINT('Vertex',(12.5,0.,0.)) ;
#146=CARTESIAN_POINT('Line Origine',(12.5,35.,0.)) ;
#150=CARTESIAN_POINT('Vertex',(12.5,70.,0.)) ;
#153=CARTESIAN_POINT('Line Origine',(12.5,70.,3.5)) ;
#157=CARTESIAN_POINT('Vertex',(12.5,70.,7.)) ;
#160=CARTESIAN_POINT('Line Origine',(12.5,66.,7.)) ;
#164=CARTESIAN_POINT('Vertex',(12.5,62.,7.)) ;
#167=CARTESIAN_POINT('Line Origine',(12.5,62.,12.)) ;
#190=CARTESIAN_POINT('Axis2P3D Location',(0.,62.,17.)) ;
#195=CARTESIAN_POINT('Line Origine',(0.,62.,7.)) ;
#199=CARTESIAN_POINT('Vertex',(-12.5,62.,7.)) ;
#202=CARTESIAN_POINT('Line Origine',(-12.5,62.,12.)) ;
#214=CARTESIAN_POINT('Axis2P3D Location',(0.,37.5,75.)) ;
#219=CARTESIAN_POINT('Line Origine',(0.,70.,42.5)) ;
#223=CARTESIAN_POINT('Vertex',(-12.5,70.,42.5)) ;
#226=CARTESIAN_POINT('Line Origine',(-12.5,53.75,58.75)) ;
#230=CARTESIAN_POINT('Vertex',(-12.5,37.5,75.)) ;
#233=CARTESIAN_POINT('Line Origine',(0.,37.5,75.)) ;
#245=CARTESIAN_POINT('Axis2P3D Location',(0.,37.5,75.)) ;
#250=CARTESIAN_POINT('Line Origine',(-12.5,53.75,91.25)) ;
#254=CARTESIAN_POINT('Vertex',(-12.5,70.,107.5)) ;
#257=CARTESIAN_POINT('Line Origine',(0.,70.,107.5)) ;
#269=CARTESIAN_POINT('Axis2P3D Location',(0.,70.,0.)) ;
#274=CARTESIAN_POINT('Line Origine',(-12.5,70.,116.25)) ;
#278=CARTESIAN_POINT('Vertex',(-12.5,70.,125.)) ;
#281=CARTESIAN_POINT('Line Origine',(0.,70.,125.)) ;
#293=CARTESIAN_POINT('Axis2P3D Location',(0.,70.,125.)) ;
#298=CARTESIAN_POINT('Line Origine',(-12.5,35.,125.)) ;
#302=CARTESIAN_POINT('Vertex',(-12.5,0.,125.)) ;
#305=CARTESIAN_POINT('Line Origine',(0.,0.,125.)) ;
#317=CARTESIAN_POINT('Axis2P3D Location',(0.,0.,125.)) ;
#322=CARTESIAN_POINT('Line Origine',(-12.5,0.,71.)) ;
#326=CARTESIAN_POINT('Vertex',(-12.5,-7.1054273576E-15,17.)) ;
#329=CARTESIAN_POINT('Line Origine',(0.,0.,17.)) ;
#341=CARTESIAN_POINT('Line Origine',(-12.5,4.,17.)) ;
#345=CARTESIAN_POINT('Vertex',(-12.5,8.,17.)) ;
#348=CARTESIAN_POINT('Line Origine',(0.,8.,17.)) ;
#360=CARTESIAN_POINT('Line Origine',(-12.5,0.,3.5)) ;
#364=CARTESIAN_POINT('Vertex',(-12.5,0.,7.)) ;
#366=CARTESIAN_POINT('Vertex',(-12.5,0.,0.)) ;
#369=CARTESIAN_POINT('Line Origine',(0.,0.,0.)) ;
#374=CARTESIAN_POINT('Line Origine',(0.,0.,7.)) ;
#386=CARTESIAN_POINT('Axis2P3D Location',(0.,0.,0.)) ;
#391=CARTESIAN_POINT('Line Origine',(-12.5,35.,0.)) ;
#395=CARTESIAN_POINT('Vertex',(-12.5,70.,0.)) ;
#398=CARTESIAN_POINT('Line Origine',(0.,70.,0.)) ;
#410=CARTESIAN_POINT('Line Origine',(-12.5,70.,3.5)) ;
#414=CARTESIAN_POINT('Vertex',(-12.5,70.,7.)) ;
#417=CARTESIAN_POINT('Line Origine',(0.,70.,7.)) ;
#429=CARTESIAN_POINT('Axis2P3D Location',(0.,70.,7.)) ;
#434=CARTESIAN_POINT('Line Origine',(-12.5,66.,7.)) ;
#446=CARTESIAN_POINT('Line Origine',(0.,8.,7.)) ;
#450=CARTESIAN_POINT('Vertex',(-12.5,8.,7.)) ;
#453=CARTESIAN_POINT('Line Origine',(-12.5,4.,7.)) ;
#465=CARTESIAN_POINT('Axis2P3D Location',(0.,8.,7.)) ;
#470=CARTESIAN_POINT('Line Origine',(-12.5,8.,12.)) ;
#482=CARTESIAN_POINT('Axis2P3D Location',(-12.5,0.,0.)) ;
#487=CARTESIAN_POINT('Line Origine',(-12.5,70.,29.75)) ;
#517=CARTESIAN_POINT('Axis2P3D Location',(0.,0.,0.)) ;
#6=PRODUCT_RELATED_PRODUCT_CATEGORY('part',$,(#16)) ;
#11=UNCERTAINTY_MEASURE_WITH_UNIT(LENGTH_MEASURE(0.005),#8,'distance_accuracy_value','CONFUSED CURVE UNCERTAINTY') ;
#29=STYLED_ITEM(' ',(#28),#21) ;
#525=STYLED_ITEM(' ',(#524),#520) ;
#28=PRESENTATION_STYLE_ASSIGNMENT((#27)) ;
#524=PRESENTATION_STYLE_ASSIGNMENT((#523)) ;
#523=CURVE_STYLE(' ',#521,POSITIVE_LENGTH_MEASURE(0.129999995232),#522) ;
#27=SURFACE_STYLE_USAGE(.BOTH.,#26) ;
#26=SURFACE_SIDE_STYLE(' ',(#25)) ;
#25=SURFACE_STYLE_FILL_AREA(#24) ;
#24=FILL_AREA_STYLE(' ',(#23)) ;
#23=FILL_AREA_STYLE_COLOUR(' ',#22) ;
#38=VECTOR('Line Direction',#37,1.) ;
#47=VECTOR('Line Direction',#46,1.) ;
#54=VECTOR('Line Direction',#53,1.) ;
#61=VECTOR('Line Direction',#60,1.) ;
#78=VECTOR('Line Direction',#77,1.) ;
#85=VECTOR('Line Direction',#84,1.) ;
#92=VECTOR('Line Direction',#91,1.) ;
#99=VECTOR('Line Direction',#98,1.) ;
#106=VECTOR('Line Direction',#105,1.) ;
#113=VECTOR('Line Direction',#112,1.) ;
#120=VECTOR('Line Direction',#119,1.) ;
#127=VECTOR('Line Direction',#126,1.) ;
#134=VECTOR('Line Direction',#133,1.) ;
#141=VECTOR('Line Direction',#140,1.) ;
#148=VECTOR('Line Direction',#147,1.) ;
#155=VECTOR('Line Direction',#154,1.) ;
#162=VECTOR('Line Direction',#161,1.) ;
#169=VECTOR('Line Direction',#168,1.) ;
#197=VECTOR('Line Direction',#196,1.) ;
#204=VECTOR('Line Direction',#203,1.) ;
#221=VECTOR('Line Direction',#220,1.) ;
#228=VECTOR('Line Direction',#227,1.) ;
#235=VECTOR('Line Direction',#234,1.) ;
#252=VECTOR('Line Direction',#251,1.) ;
#259=VECTOR('Line Direction',#258,1.) ;
#276=VECTOR('Line Direction',#275,1.) ;
#283=VECTOR('Line Direction',#282,1.) ;
#300=VECTOR('Line Direction',#299,1.) ;
#307=VECTOR('Line Direction',#306,1.) ;
#324=VECTOR('Line Direction',#323,1.) ;
#331=VECTOR('Line Direction',#330,1.) ;
#343=VECTOR('Line Direction',#342,1.) ;
#350=VECTOR('Line Direction',#349,1.) ;
#362=VECTOR('Line Direction',#361,1.) ;
#371=VECTOR('Line Direction',#370,1.) ;
#376=VECTOR('Line Direction',#375,1.) ;
#393=VECTOR('Line Direction',#392,1.) ;
#400=VECTOR('Line Direction',#399,1.) ;
#412=VECTOR('Line Direction',#411,1.) ;
#419=VECTOR('Line Direction',#418,1.) ;
#436=VECTOR('Line Direction',#435,1.) ;
#448=VECTOR('Line Direction',#447,1.) ;
#455=VECTOR('Line Direction',#454,1.) ;
#472=VECTOR('Line Direction',#471,1.) ;
#489=VECTOR('Line Direction',#488,1.) ;
#32=DIRECTION('Axis2P3D Direction',(0.,-0.,1.)) ;
#33=DIRECTION('Axis2P3D XDirection',(0.,1.,0.)) ;
#37=DIRECTION('Vector Direction',(-1.,0.,0.)) ;
#46=DIRECTION('Vector Direction',(0.,-1.,0.)) ;
#53=DIRECTION('Vector Direction',(-1.,0.,0.)) ;
#60=DIRECTION('Vector Direction',(0.,-1.,0.)) ;
#72=DIRECTION('Axis2P3D Direction',(1.,0.,0.)) ;
#73=DIRECTION('Axis2P3D XDirection',(0.,1.,0.)) ;
#77=DIRECTION('Vector Direction',(0.,0.,1.)) ;
#84=DIRECTION('Vector Direction',(0.,0.707106781187,-0.707106781187)) ;
#91=DIRECTION('Vector Direction',(0.,0.707106781187,0.707106781187)) ;
#98=DIRECTION('Vector Direction',(0.,0.,1.)) ;
#105=DIRECTION('Vector Direction',(0.,-1.,0.)) ;
#112=DIRECTION('Vector Direction',(0.,0.,-1.)) ;
#119=DIRECTION('Vector Direction',(0.,1.,0.)) ;
#126=DIRECTION('Vector Direction',(0.,0.,1.)) ;
#133=DIRECTION('Vector Direction',(0.,1.,0.)) ;
#140=DIRECTION('Vector Direction',(0.,0.,-1.)) ;
#147=DIRECTION('Vector Direction',(0.,1.,0.)) ;
#154=DIRECTION('Vector Direction',(0.,0.,1.)) ;
#161=DIRECTION('Vector Direction',(0.,-1.,0.)) ;
#168=DIRECTION('Vector Direction',(0.,0.,-1.)) ;
#191=DIRECTION('Axis2P3D Direction',(0.,1.,0.)) ;
#192=DIRECTION('Axis2P3D XDirection',(0.,0.,-1.)) ;
#196=DIRECTION('Vector Direction',(-1.,0.,0.)) ;
#203=DIRECTION('Vector Direction',(0.,0.,-1.)) ;
#215=DIRECTION('Axis2P3D Direction',(0.,-0.707106781187,-0.707106781187)) ;
#216=DIRECTION('Axis2P3D XDirection',(0.,0.707106781187,-0.707106781187)) ;
#220=DIRECTION('Vector Direction',(1.,0.,0.)) ;
#227=DIRECTION('Vector Direction',(0.,0.707106781187,-0.707106781187)) ;
#234=DIRECTION('Vector Direction',(1.,0.,0.)) ;
#246=DIRECTION('Axis2P3D Direction',(0.,0.707106781187,-0.707106781187)) ;
#247=DIRECTION('Axis2P3D XDirection',(0.,0.707106781187,0.707106781187)) ;
#251=DIRECTION('Vector Direction',(0.,0.707106781187,0.707106781187)) ;
#258=DIRECTION('Vector Direction',(1.,0.,0.)) ;
#270=DIRECTION('Axis2P3D Direction',(0.,1.,0.)) ;
#271=DIRECTION('Axis2P3D XDirection',(0.,0.,1.)) ;
#275=DIRECTION('Vector Direction',(0.,0.,1.)) ;
#282=DIRECTION('Vector Direction',(1.,0.,0.)) ;
#294=DIRECTION('Axis2P3D Direction',(-0.,0.,1.)) ;
#295=DIRECTION('Axis2P3D XDirection',(0.,-1.,0.)) ;
#299=DIRECTION('Vector Direction',(0.,-1.,0.)) ;
#306=DIRECTION('Vector Direction',(1.,0.,0.)) ;
#318=DIRECTION('Axis2P3D Direction',(0.,-1.,0.)) ;
#319=DIRECTION('Axis2P3D XDirection',(0.,0.,-1.)) ;
#323=DIRECTION('Vector Direction',(0.,0.,-1.)) ;
#330=DIRECTION('Vector Direction',(-1.,0.,0.)) ;
#342=DIRECTION('Vector Direction',(0.,1.,0.)) ;
#349=DIRECTION('Vector Direction',(-1.,0.,0.)) ;
#361=DIRECTION('Vector Direction',(0.,0.,-1.)) ;
#370=DIRECTION('Vector Direction',(1.,0.,0.)) ;
#375=DIRECTION('Vector Direction',(-1.,0.,0.)) ;
#387=DIRECTION('Axis2P3D Direction',(0.,0.,-1.)) ;
#388=DIRECTION('Axis2P3D XDirection',(0.,1.,0.)) ;
#392=DIRECTION('Vector Direction',(0.,1.,0.)) ;
#399=DIRECTION('Vector Direction',(1.,0.,0.)) ;
#411=DIRECTION('Vector Direction',(0.,0.,1.)) ;
#418=DIRECTION('Vector Direction',(-1.,0.,0.)) ;
#430=DIRECTION('Axis2P3D Direction',(-0.,-0.,-1.)) ;
#431=DIRECTION('Axis2P3D XDirection',(0.,-1.,0.)) ;
#435=DIRECTION('Vector Direction',(0.,-1.,0.)) ;
#447=DIRECTION('Vector Direction',(-1.,0.,0.)) ;
#454=DIRECTION('Vector Direction',(0.,1.,0.)) ;
#466=DIRECTION('Axis2P3D Direction',(0.,-1.,0.)) ;
#467=DIRECTION('Axis2P3D XDirection',(0.,0.,1.)) ;
#471=DIRECTION('Vector Direction',(0.,0.,1.)) ;
#483=DIRECTION('Axis2P3D Direction',(1.,0.,0.)) ;
#484=DIRECTION('Axis2P3D XDirection',(0.,1.,0.)) ;
#488=DIRECTION('Vector Direction',(0.,0.,1.)) ;
#518=DIRECTION('Axis2P3D Direction',(0.,0.,1.)) ;
#519=DIRECTION('Axis2P3D XDirection',(1.,0.,0.)) ;
#15=AXIS2_PLACEMENT_3D('',#14,$,$) ;
#34=AXIS2_PLACEMENT_3D('Plane Axis2P3D',#31,#32,#33) ;
#74=AXIS2_PLACEMENT_3D('Plane Axis2P3D',#71,#72,#73) ;
#193=AXIS2_PLACEMENT_3D('Plane Axis2P3D',#190,#191,#192) ;
#217=AXIS2_PLACEMENT_3D('Plane Axis2P3D',#214,#215,#216) ;
#248=AXIS2_PLACEMENT_3D('Plane Axis2P3D',#245,#246,#247) ;
#272=AXIS2_PLACEMENT_3D('Plane Axis2P3D',#269,#270,#271) ;
#296=AXIS2_PLACEMENT_3D('Plane Axis2P3D',#293,#294,#295) ;
#320=AXIS2_PLACEMENT_3D('Plane Axis2P3D',#317,#318,#319) ;
#389=AXIS2_PLACEMENT_3D('Plane Axis2P3D',#386,#387,#388) ;
#432=AXIS2_PLACEMENT_3D('Plane Axis2P3D',#429,#430,#431) ;
#468=AXIS2_PLACEMENT_3D('Plane Axis2P3D',#465,#466,#467) ;
#485=AXIS2_PLACEMENT_3D('Plane Axis2P3D',#482,#483,#484) ;
#520=AXIS2_PLACEMENT_3D('Rep\X2\00E8\X0\re absolu',#517,#518,#519) ;
#39=LINE('Line',#36,#38) ;
#48=LINE('Line',#45,#47) ;
#55=LINE('Line',#52,#54) ;
#62=LINE('Line',#59,#61) ;
#79=LINE('Line',#76,#78) ;
#86=LINE('Line',#83,#85) ;
#93=LINE('Line',#90,#92) ;
#100=LINE('Line',#97,#99) ;
#107=LINE('Line',#104,#106) ;
#114=LINE('Line',#111,#113) ;
#121=LINE('Line',#118,#120) ;
#128=LINE('Line',#125,#127) ;
#135=LINE('Line',#132,#134) ;
#142=LINE('Line',#139,#141) ;
#149=LINE('Line',#146,#148) ;
#156=LINE('Line',#153,#155) ;
#163=LINE('Line',#160,#162) ;
#170=LINE('Line',#167,#169) ;
#198=LINE('Line',#195,#197) ;
#205=LINE('Line',#202,#204) ;
#222=LINE('Line',#219,#221) ;
#229=LINE('Line',#226,#228) ;
#236=LINE('Line',#233,#235) ;
#253=LINE('Line',#250,#252) ;
#260=LINE('Line',#257,#259) ;
#277=LINE('Line',#274,#276) ;
#284=LINE('Line',#281,#283) ;
#301=LINE('Line',#298,#300) ;
#308=LINE('Line',#305,#307) ;
#325=LINE('Line',#322,#324) ;
#332=LINE('Line',#329,#331) ;
#344=LINE('Line',#341,#343) ;
#351=LINE('Line',#348,#350) ;
#363=LINE('Line',#360,#362) ;
#372=LINE('Line',#369,#371) ;
#377=LINE('Line',#374,#376) ;
#394=LINE('Line',#391,#393) ;
#401=LINE('Line',#398,#400) ;
#413=LINE('Line',#410,#412) ;
#420=LINE('Line',#417,#419) ;
#437=LINE('Line',#434,#436) ;
#449=LINE('Line',#446,#448) ;
#456=LINE('Line',#453,#455) ;
#473=LINE('Line',#470,#472) ;
#490=LINE('Line',#487,#489) ;
#35=PLANE('',#34) ;
#75=PLANE('',#74) ;
#194=PLANE('',#193) ;
#218=PLANE('',#217) ;
#249=PLANE('',#248) ;
#273=PLANE('',#272) ;
#297=PLANE('',#296) ;
#321=PLANE('',#320) ;
#390=PLANE('',#389) ;
#433=PLANE('',#432) ;
#469=PLANE('',#468) ;
#486=PLANE('',#485) ;
#44=EDGE_CURVE('',#41,#43,#39,.T.) ;
#51=EDGE_CURVE('',#50,#43,#48,.T.) ;
#58=EDGE_CURVE('',#57,#50,#55,.T.) ;
#63=EDGE_CURVE('',#57,#41,#62,.T.) ;
#82=EDGE_CURVE('',#57,#81,#79,.T.) ;
#89=EDGE_CURVE('',#81,#88,#86,.F.) ;
#96=EDGE_CURVE('',#88,#95,#93,.T.) ;
#103=EDGE_CURVE('',#95,#102,#100,.T.) ;
#110=EDGE_CURVE('',#102,#109,#107,.T.) ;
#117=EDGE_CURVE('',#109,#116,#114,.T.) ;
#124=EDGE_CURVE('',#116,#123,#121,.T.) ;
#131=EDGE_CURVE('',#130,#123,#128,.T.) ;
#138=EDGE_CURVE('',#137,#130,#135,.T.) ;
#145=EDGE_CURVE('',#137,#144,#142,.T.) ;
#152=EDGE_CURVE('',#144,#151,#149,.T.) ;
#159=EDGE_CURVE('',#151,#158,#156,.T.) ;
#166=EDGE_CURVE('',#158,#165,#163,.T.) ;
#171=EDGE_CURVE('',#41,#165,#170,.T.) ;
#201=EDGE_CURVE('',#165,#200,#198,.T.) ;
#206=EDGE_CURVE('',#43,#200,#205,.T.) ;
#225=EDGE_CURVE('',#224,#81,#222,.T.) ;
#232=EDGE_CURVE('',#224,#231,#229,.F.) ;
#237=EDGE_CURVE('',#231,#88,#236,.T.) ;
#256=EDGE_CURVE('',#231,#255,#253,.T.) ;
#261=EDGE_CURVE('',#255,#95,#260,.T.) ;
#280=EDGE_CURVE('',#255,#279,#277,.T.) ;
#285=EDGE_CURVE('',#279,#102,#284,.T.) ;
#304=EDGE_CURVE('',#279,#303,#301,.T.) ;
#309=EDGE_CURVE('',#303,#109,#308,.T.) ;
#328=EDGE_CURVE('',#303,#327,#325,.T.) ;
#333=EDGE_CURVE('',#116,#327,#332,.T.) ;
#347=EDGE_CURVE('',#327,#346,#344,.T.) ;
#352=EDGE_CURVE('',#123,#346,#351,.T.) ;
#368=EDGE_CURVE('',#365,#367,#363,.T.) ;
#373=EDGE_CURVE('',#367,#144,#372,.T.) ;
#378=EDGE_CURVE('',#137,#365,#377,.T.) ;
#397=EDGE_CURVE('',#367,#396,#394,.T.) ;
#402=EDGE_CURVE('',#396,#151,#401,.T.) ;
#416=EDGE_CURVE('',#396,#415,#413,.T.) ;
#421=EDGE_CURVE('',#158,#415,#420,.T.) ;
#438=EDGE_CURVE('',#415,#200,#437,.T.) ;
#452=EDGE_CURVE('',#130,#451,#449,.T.) ;
#457=EDGE_CURVE('',#365,#451,#456,.T.) ;
#474=EDGE_CURVE('',#451,#346,#473,.T.) ;
#491=EDGE_CURVE('',#50,#224,#490,.T.) ;
#30=CLOSED_SHELL('Closed Shell',(#70,#189,#213,#244,#268,#292,#316,#340,#359,#385,#409,#428,#445,#464,#481,#509,#516)) ;
#65=ORIENTED_EDGE('',*,*,#44,.T.) ;
#66=ORIENTED_EDGE('',*,*,#51,.F.) ;
#67=ORIENTED_EDGE('',*,*,#58,.F.) ;
#68=ORIENTED_EDGE('',*,*,#63,.T.) ;
#173=ORIENTED_EDGE('',*,*,#82,.T.) ;
#174=ORIENTED_EDGE('',*,*,#89,.T.) ;
#175=ORIENTED_EDGE('',*,*,#96,.T.) ;
#176=ORIENTED_EDGE('',*,*,#103,.T.) ;
#177=ORIENTED_EDGE('',*,*,#110,.T.) ;
#178=ORIENTED_EDGE('',*,*,#117,.T.) ;
#179=ORIENTED_EDGE('',*,*,#124,.T.) ;
#180=ORIENTED_EDGE('',*,*,#131,.F.) ;
#181=ORIENTED_EDGE('',*,*,#138,.F.) ;
#182=ORIENTED_EDGE('',*,*,#145,.T.) ;
#183=ORIENTED_EDGE('',*,*,#152,.T.) ;
#184=ORIENTED_EDGE('',*,*,#159,.T.) ;
#185=ORIENTED_EDGE('',*,*,#166,.T.) ;
#186=ORIENTED_EDGE('',*,*,#171,.F.) ;
#187=ORIENTED_EDGE('',*,*,#63,.F.) ;
#208=ORIENTED_EDGE('',*,*,#171,.T.) ;
#209=ORIENTED_EDGE('',*,*,#201,.T.) ;
#210=ORIENTED_EDGE('',*,*,#206,.F.) ;
#211=ORIENTED_EDGE('',*,*,#44,.F.) ;
#239=ORIENTED_EDGE('',*,*,#225,.F.) ;
#240=ORIENTED_EDGE('',*,*,#232,.T.) ;
#241=ORIENTED_EDGE('',*,*,#237,.T.) ;
#242=ORIENTED_EDGE('',*,*,#89,.F.) ;
#263=ORIENTED_EDGE('',*,*,#237,.F.) ;
#264=ORIENTED_EDGE('',*,*,#256,.T.) ;
#265=ORIENTED_EDGE('',*,*,#261,.T.) ;
#266=ORIENTED_EDGE('',*,*,#96,.F.) ;
#287=ORIENTED_EDGE('',*,*,#261,.F.) ;
#288=ORIENTED_EDGE('',*,*,#280,.T.) ;
#289=ORIENTED_EDGE('',*,*,#285,.T.) ;
#290=ORIENTED_EDGE('',*,*,#103,.F.) ;
#311=ORIENTED_EDGE('',*,*,#285,.F.) ;
#312=ORIENTED_EDGE('',*,*,#304,.T.) ;
#313=ORIENTED_EDGE('',*,*,#309,.T.) ;
#314=ORIENTED_EDGE('',*,*,#110,.F.) ;
#335=ORIENTED_EDGE('',*,*,#117,.F.) ;
#336=ORIENTED_EDGE('',*,*,#309,.F.) ;
#337=ORIENTED_EDGE('',*,*,#328,.T.) ;
#338=ORIENTED_EDGE('',*,*,#333,.F.) ;
#354=ORIENTED_EDGE('',*,*,#333,.T.) ;
#355=ORIENTED_EDGE('',*,*,#347,.T.) ;
#356=ORIENTED_EDGE('',*,*,#352,.F.) ;
#357=ORIENTED_EDGE('',*,*,#124,.F.) ;
#380=ORIENTED_EDGE('',*,*,#368,.T.) ;
#381=ORIENTED_EDGE('',*,*,#373,.T.) ;
#382=ORIENTED_EDGE('',*,*,#145,.F.) ;
#383=ORIENTED_EDGE('',*,*,#378,.T.) ;
#404=ORIENTED_EDGE('',*,*,#373,.F.) ;
#405=ORIENTED_EDGE('',*,*,#397,.T.) ;
#406=ORIENTED_EDGE('',*,*,#402,.T.) ;
#407=ORIENTED_EDGE('',*,*,#152,.F.) ;
#423=ORIENTED_EDGE('',*,*,#159,.F.) ;
#424=ORIENTED_EDGE('',*,*,#402,.F.) ;
#425=ORIENTED_EDGE('',*,*,#416,.T.) ;
#426=ORIENTED_EDGE('',*,*,#421,.F.) ;
#440=ORIENTED_EDGE('',*,*,#421,.T.) ;
#441=ORIENTED_EDGE('',*,*,#438,.T.) ;
#442=ORIENTED_EDGE('',*,*,#201,.F.) ;
#443=ORIENTED_EDGE('',*,*,#166,.F.) ;
#459=ORIENTED_EDGE('',*,*,#452,.T.) ;
#460=ORIENTED_EDGE('',*,*,#457,.F.) ;
#461=ORIENTED_EDGE('',*,*,#378,.F.) ;
#462=ORIENTED_EDGE('',*,*,#138,.T.) ;
#476=ORIENTED_EDGE('',*,*,#131,.T.) ;
#477=ORIENTED_EDGE('',*,*,#352,.T.) ;
#478=ORIENTED_EDGE('',*,*,#474,.F.) ;
#479=ORIENTED_EDGE('',*,*,#452,.F.) ;
#493=ORIENTED_EDGE('',*,*,#51,.T.) ;
#494=ORIENTED_EDGE('',*,*,#206,.T.) ;
#495=ORIENTED_EDGE('',*,*,#438,.F.) ;
#496=ORIENTED_EDGE('',*,*,#416,.F.) ;
#497=ORIENTED_EDGE('',*,*,#397,.F.) ;
#498=ORIENTED_EDGE('',*,*,#368,.F.) ;
#499=ORIENTED_EDGE('',*,*,#457,.T.) ;
#500=ORIENTED_EDGE('',*,*,#474,.T.) ;
#501=ORIENTED_EDGE('',*,*,#347,.F.) ;
#502=ORIENTED_EDGE('',*,*,#328,.F.) ;
#503=ORIENTED_EDGE('',*,*,#304,.F.) ;
#504=ORIENTED_EDGE('',*,*,#280,.F.) ;
#505=ORIENTED_EDGE('',*,*,#256,.F.) ;
#506=ORIENTED_EDGE('',*,*,#232,.F.) ;
#507=ORIENTED_EDGE('',*,*,#491,.F.) ;
#511=ORIENTED_EDGE('',*,*,#491,.T.) ;
#512=ORIENTED_EDGE('',*,*,#225,.T.) ;
#513=ORIENTED_EDGE('',*,*,#82,.F.) ;
#514=ORIENTED_EDGE('',*,*,#58,.T.) ;
#526=CONSTRUCTIVE_GEOMETRY_REPRESENTATION('supplemental geometry',(#520),#12) ;
#64=EDGE_LOOP('',(#65,#66,#67,#68)) ;
#172=EDGE_LOOP('',(#173,#174,#175,#176,#177,#178,#179,#180,#181,#182,#183,#184,#185,#186,#187)) ;
#207=EDGE_LOOP('',(#208,#209,#210,#211)) ;
#238=EDGE_LOOP('',(#239,#240,#241,#242)) ;
#262=EDGE_LOOP('',(#263,#264,#265,#266)) ;
#286=EDGE_LOOP('',(#287,#288,#289,#290)) ;
#310=EDGE_LOOP('',(#311,#312,#313,#314)) ;
#334=EDGE_LOOP('',(#335,#336,#337,#338)) ;
#353=EDGE_LOOP('',(#354,#355,#356,#357)) ;
#379=EDGE_LOOP('',(#380,#381,#382,#383)) ;
#403=EDGE_LOOP('',(#404,#405,#406,#407)) ;
#422=EDGE_LOOP('',(#423,#424,#425,#426)) ;
#439=EDGE_LOOP('',(#440,#441,#442,#443)) ;
#458=EDGE_LOOP('',(#459,#460,#461,#462)) ;
#475=EDGE_LOOP('',(#476,#477,#478,#479)) ;
#492=EDGE_LOOP('',(#493,#494,#495,#496,#497,#498,#499,#500,#501,#502,#503,#504,#505,#506,#507)) ;
#510=EDGE_LOOP('',(#511,#512,#513,#514)) ;
#21=MANIFOLD_SOLID_BREP('Corps de pi\X2\00E8\X0\ce.2',#30) ;
#41=VERTEX_POINT('',#40) ;
#43=VERTEX_POINT('',#42) ;
#50=VERTEX_POINT('',#49) ;
#57=VERTEX_POINT('',#56) ;
#81=VERTEX_POINT('',#80) ;
#88=VERTEX_POINT('',#87) ;
#95=VERTEX_POINT('',#94) ;
#102=VERTEX_POINT('',#101) ;
#109=VERTEX_POINT('',#108) ;
#116=VERTEX_POINT('',#115) ;
#123=VERTEX_POINT('',#122) ;
#130=VERTEX_POINT('',#129) ;
#137=VERTEX_POINT('',#136) ;
#144=VERTEX_POINT('',#143) ;
#151=VERTEX_POINT('',#150) ;
#158=VERTEX_POINT('',#157) ;
#165=VERTEX_POINT('',#164) ;
#200=VERTEX_POINT('',#199) ;
#224=VERTEX_POINT('',#223) ;
#231=VERTEX_POINT('',#230) ;
#255=VERTEX_POINT('',#254) ;
#279=VERTEX_POINT('',#278) ;
#303=VERTEX_POINT('',#302) ;
#327=VERTEX_POINT('',#326) ;
#346=VERTEX_POINT('',#345) ;
#365=VERTEX_POINT('',#364) ;
#367=VERTEX_POINT('',#366) ;
#396=VERTEX_POINT('',#395) ;
#415=VERTEX_POINT('',#414) ;
#451=VERTEX_POINT('',#450) ;
#70=ADVANCED_FACE('Corps de pi\X2\00E8\X0\ce.2',(#69),#35,.F.) ;
#189=ADVANCED_FACE('Corps de pi\X2\00E8\X0\ce.2',(#188),#75,.T.) ;
#213=ADVANCED_FACE('Corps de pi\X2\00E8\X0\ce.2',(#212),#194,.T.) ;
#244=ADVANCED_FACE('Corps de pi\X2\00E8\X0\ce.2',(#243),#218,.F.) ;
#268=ADVANCED_FACE('Corps de pi\X2\00E8\X0\ce.2',(#267),#249,.T.) ;
#292=ADVANCED_FACE('Corps de pi\X2\00E8\X0\ce.2',(#291),#273,.T.) ;
#316=ADVANCED_FACE('Corps de pi\X2\00E8\X0\ce.2',(#315),#297,.T.) ;
#340=ADVANCED_FACE('Corps de pi\X2\00E8\X0\ce.2',(#339),#321,.T.) ;
#359=ADVANCED_FACE('Corps de pi\X2\00E8\X0\ce.2',(#358),#35,.F.) ;
#385=ADVANCED_FACE('Corps de pi\X2\00E8\X0\ce.2',(#384),#321,.T.) ;
#409=ADVANCED_FACE('Corps de pi\X2\00E8\X0\ce.2',(#408),#390,.T.) ;
#428=ADVANCED_FACE('Corps de pi\X2\00E8\X0\ce.2',(#427),#273,.T.) ;
#445=ADVANCED_FACE('Corps de pi\X2\00E8\X0\ce.2',(#444),#433,.F.) ;
#464=ADVANCED_FACE('Corps de pi\X2\00E8\X0\ce.2',(#463),#433,.F.) ;
#481=ADVANCED_FACE('Corps de pi\X2\00E8\X0\ce.2',(#480),#469,.T.) ;
#509=ADVANCED_FACE('Corps de pi\X2\00E8\X0\ce.2',(#508),#486,.F.) ;
#516=ADVANCED_FACE('Corps de pi\X2\00E8\X0\ce.2',(#515),#273,.T.) ;
#4=APPLICATION_PROTOCOL_DEFINITION('international standard','ap242_managed_model_based_3d_engineering',2014,#1) ;
#22=COLOUR_RGB('Colour',0.882352941176,0.882352941176,0.882352941176) ;
#527=CONSTRUCTIVE_GEOMETRY_REPRESENTATION_RELATIONSHIP('supplemental geometry','',#13,#526) ;
#522=DRAUGHTING_PRE_DEFINED_COLOUR('black') ;
#521=DRAUGHTING_PRE_DEFINED_CURVE_FONT('continuous') ;
#69=FACE_OUTER_BOUND('',#64,.T.) ;
#188=FACE_OUTER_BOUND('',#172,.T.) ;
#212=FACE_OUTER_BOUND('',#207,.T.) ;
#243=FACE_OUTER_BOUND('',#238,.T.) ;
#267=FACE_OUTER_BOUND('',#262,.T.) ;
#291=FACE_OUTER_BOUND('',#286,.T.) ;
#315=FACE_OUTER_BOUND('',#310,.T.) ;
#339=FACE_OUTER_BOUND('',#334,.T.) ;
#358=FACE_OUTER_BOUND('',#353,.T.) ;
#384=FACE_OUTER_BOUND('',#379,.T.) ;
#408=FACE_OUTER_BOUND('',#403,.T.) ;
#427=FACE_OUTER_BOUND('',#422,.T.) ;
#444=FACE_OUTER_BOUND('',#439,.T.) ;
#463=FACE_OUTER_BOUND('',#458,.T.) ;
#480=FACE_OUTER_BOUND('',#475,.T.) ;
#508=FACE_OUTER_BOUND('',#492,.T.) ;
#515=FACE_OUTER_BOUND('',#510,.T.) ;
#7=PRODUCT_CATEGORY_RELATIONSHIP(' ',' ',#5,#6) ;
#17=PRODUCT_DEFINITION_FORMATION_WITH_SPECIFIED_SOURCE('',' ',#16,.NOT_KNOWN.) ;
#20=SHAPE_DEFINITION_REPRESENTATION(#19,#13) ;
#8=(LENGTH_UNIT()NAMED_UNIT(*)SI_UNIT(.MILLI.,.METRE.)) ;
#9=(NAMED_UNIT(*)PLANE_ANGLE_UNIT()SI_UNIT($,.RADIAN.)) ;
#10=(NAMED_UNIT(*)SI_UNIT($,.STERADIAN.)SOLID_ANGLE_UNIT()) ;
#12=(GEOMETRIC_REPRESENTATION_CONTEXT(3)GLOBAL_UNCERTAINTY_ASSIGNED_CONTEXT((#11))GLOBAL_UNIT_ASSIGNED_CONTEXT((#8,#9,#10))REPRESENTATION_CONTEXT(' ',' ')) ;
ENDSEC;
END-ISO-10303-21;
