ISO-10303-21;
HEADER;
/* Generated by software containing ST-Developer
 * from STEP Tools, Inc. (www.steptools.com) 
 */

FILE_DESCRIPTION(
/* description */ (''),
/* implementation_level */ '2;1');

FILE_NAME(
/* name */ '/Users/jym/Desktop/Attelage remorque tondeuse.step',
/* time_stamp */ '2020-11-10T21:39:58+01:00',
/* author */ (''),
/* organization */ (''),
/* preprocessor_version */ 'ST-DEVELOPER v18.1',
/* originating_system */ 'Autodesk Translation Framework v9.3.0.1241',
/* authorisation */ '');

FILE_SCHEMA (('AUTOMOTIVE_DESIGN { 1 0 10303 214 3 1 1 }'));
ENDSEC;

DATA;
#10=MECHANICAL_DESIGN_GEOMETRIC_PRESENTATION_REPRESENTATION('',(#13),#498);
#11=SHAPE_REPRESENTATION_RELATIONSHIP('SRR','None',#505,#12);
#12=ADVANCED_BREP_SHAPE_REPRESENTATION('',(#14),#497);
#13=STYLED_ITEM('',(#514),#14);
#14=MANIFOLD_SOLID_BREP('barre attelage',#302);
#15=FACE_BOUND('',#53,.T.);
#16=FACE_BOUND('',#54,.T.);
#17=FACE_BOUND('',#57,.T.);
#18=FACE_BOUND('',#58,.T.);
#19=FACE_BOUND('',#62,.T.);
#20=FACE_BOUND('',#65,.T.);
#21=PLANE('',#325);
#22=PLANE('',#326);
#23=PLANE('',#327);
#24=PLANE('',#328);
#25=PLANE('',#329);
#26=PLANE('',#330);
#27=PLANE('',#331);
#28=PLANE('',#332);
#29=PLANE('',#333);
#30=PLANE('',#334);
#31=PLANE('',#335);
#32=PLANE('',#336);
#33=FACE_OUTER_BOUND('',#48,.T.);
#34=FACE_OUTER_BOUND('',#49,.T.);
#35=FACE_OUTER_BOUND('',#50,.T.);
#36=FACE_OUTER_BOUND('',#51,.T.);
#37=FACE_OUTER_BOUND('',#52,.T.);
#38=FACE_OUTER_BOUND('',#55,.T.);
#39=FACE_OUTER_BOUND('',#56,.T.);
#40=FACE_OUTER_BOUND('',#59,.T.);
#41=FACE_OUTER_BOUND('',#60,.T.);
#42=FACE_OUTER_BOUND('',#61,.T.);
#43=FACE_OUTER_BOUND('',#63,.T.);
#44=FACE_OUTER_BOUND('',#64,.T.);
#45=FACE_OUTER_BOUND('',#66,.T.);
#46=FACE_OUTER_BOUND('',#67,.T.);
#47=FACE_OUTER_BOUND('',#68,.T.);
#48=EDGE_LOOP('',(#206,#207,#208,#209));
#49=EDGE_LOOP('',(#210,#211,#212,#213));
#50=EDGE_LOOP('',(#214,#215,#216,#217));
#51=EDGE_LOOP('',(#218,#219,#220,#221));
#52=EDGE_LOOP('',(#222,#223,#224,#225));
#53=EDGE_LOOP('',(#226));
#54=EDGE_LOOP('',(#227));
#55=EDGE_LOOP('',(#228,#229,#230,#231));
#56=EDGE_LOOP('',(#232,#233,#234,#235));
#57=EDGE_LOOP('',(#236));
#58=EDGE_LOOP('',(#237));
#59=EDGE_LOOP('',(#238,#239,#240,#241));
#60=EDGE_LOOP('',(#242,#243,#244,#245));
#61=EDGE_LOOP('',(#246,#247,#248,#249));
#62=EDGE_LOOP('',(#250));
#63=EDGE_LOOP('',(#251,#252,#253,#254));
#64=EDGE_LOOP('',(#255,#256,#257,#258));
#65=EDGE_LOOP('',(#259));
#66=EDGE_LOOP('',(#260,#261,#262,#263));
#67=EDGE_LOOP('',(#264,#265,#266,#267,#268,#269,#270,#271,#272,#273));
#68=EDGE_LOOP('',(#274,#275,#276,#277,#278,#279,#280,#281,#282,#283));
#69=LINE('',#419,#102);
#70=LINE('',#425,#103);
#71=LINE('',#431,#104);
#72=LINE('',#436,#105);
#73=LINE('',#438,#106);
#74=LINE('',#440,#107);
#75=LINE('',#441,#108);
#76=LINE('',#444,#109);
#77=LINE('',#446,#110);
#78=LINE('',#447,#111);
#79=LINE('',#450,#112);
#80=LINE('',#452,#113);
#81=LINE('',#453,#114);
#82=LINE('',#456,#115);
#83=LINE('',#458,#116);
#84=LINE('',#459,#117);
#85=LINE('',#462,#118);
#86=LINE('',#464,#119);
#87=LINE('',#465,#120);
#88=LINE('',#468,#121);
#89=LINE('',#470,#122);
#90=LINE('',#471,#123);
#91=LINE('',#474,#124);
#92=LINE('',#476,#125);
#93=LINE('',#477,#126);
#94=LINE('',#480,#127);
#95=LINE('',#482,#128);
#96=LINE('',#483,#129);
#97=LINE('',#486,#130);
#98=LINE('',#488,#131);
#99=LINE('',#489,#132);
#100=LINE('',#491,#133);
#101=LINE('',#492,#134);
#102=VECTOR('',#343,5.);
#103=VECTOR('',#350,5.);
#104=VECTOR('',#357,12.);
#105=VECTOR('',#362,10.);
#106=VECTOR('',#363,10.);
#107=VECTOR('',#364,10.);
#108=VECTOR('',#365,10.);
#109=VECTOR('',#368,10.);
#110=VECTOR('',#369,10.);
#111=VECTOR('',#370,10.);
#112=VECTOR('',#373,10.);
#113=VECTOR('',#374,10.);
#114=VECTOR('',#375,10.);
#115=VECTOR('',#378,10.);
#116=VECTOR('',#379,10.);
#117=VECTOR('',#380,10.);
#118=VECTOR('',#383,10.);
#119=VECTOR('',#384,10.);
#120=VECTOR('',#385,10.);
#121=VECTOR('',#388,10.);
#122=VECTOR('',#389,10.);
#123=VECTOR('',#390,10.);
#124=VECTOR('',#393,10.);
#125=VECTOR('',#394,10.);
#126=VECTOR('',#395,10.);
#127=VECTOR('',#398,10.);
#128=VECTOR('',#399,10.);
#129=VECTOR('',#400,10.);
#130=VECTOR('',#403,10.);
#131=VECTOR('',#404,10.);
#132=VECTOR('',#405,10.);
#133=VECTOR('',#408,10.);
#134=VECTOR('',#409,10.);
#135=CIRCLE('',#317,5.);
#136=CIRCLE('',#318,5.);
#137=CIRCLE('',#320,5.);
#138=CIRCLE('',#321,5.);
#139=CIRCLE('',#323,12.);
#140=CIRCLE('',#324,12.);
#141=VERTEX_POINT('',#416);
#142=VERTEX_POINT('',#418);
#143=VERTEX_POINT('',#422);
#144=VERTEX_POINT('',#424);
#145=VERTEX_POINT('',#428);
#146=VERTEX_POINT('',#430);
#147=VERTEX_POINT('',#434);
#148=VERTEX_POINT('',#435);
#149=VERTEX_POINT('',#437);
#150=VERTEX_POINT('',#439);
#151=VERTEX_POINT('',#443);
#152=VERTEX_POINT('',#445);
#153=VERTEX_POINT('',#449);
#154=VERTEX_POINT('',#451);
#155=VERTEX_POINT('',#455);
#156=VERTEX_POINT('',#457);
#157=VERTEX_POINT('',#461);
#158=VERTEX_POINT('',#463);
#159=VERTEX_POINT('',#467);
#160=VERTEX_POINT('',#469);
#161=VERTEX_POINT('',#473);
#162=VERTEX_POINT('',#475);
#163=VERTEX_POINT('',#479);
#164=VERTEX_POINT('',#481);
#165=VERTEX_POINT('',#485);
#166=VERTEX_POINT('',#487);
#167=EDGE_CURVE('',#141,#141,#135,.T.);
#168=EDGE_CURVE('',#141,#142,#69,.T.);
#169=EDGE_CURVE('',#142,#142,#136,.T.);
#170=EDGE_CURVE('',#143,#143,#137,.T.);
#171=EDGE_CURVE('',#143,#144,#70,.T.);
#172=EDGE_CURVE('',#144,#144,#138,.T.);
#173=EDGE_CURVE('',#145,#145,#139,.T.);
#174=EDGE_CURVE('',#145,#146,#71,.T.);
#175=EDGE_CURVE('',#146,#146,#140,.T.);
#176=EDGE_CURVE('',#147,#148,#72,.T.);
#177=EDGE_CURVE('',#147,#149,#73,.T.);
#178=EDGE_CURVE('',#150,#149,#74,.T.);
#179=EDGE_CURVE('',#148,#150,#75,.T.);
#180=EDGE_CURVE('',#148,#151,#76,.T.);
#181=EDGE_CURVE('',#152,#150,#77,.T.);
#182=EDGE_CURVE('',#151,#152,#78,.T.);
#183=EDGE_CURVE('',#151,#153,#79,.T.);
#184=EDGE_CURVE('',#154,#152,#80,.T.);
#185=EDGE_CURVE('',#153,#154,#81,.T.);
#186=EDGE_CURVE('',#155,#153,#82,.T.);
#187=EDGE_CURVE('',#156,#154,#83,.T.);
#188=EDGE_CURVE('',#155,#156,#84,.T.);
#189=EDGE_CURVE('',#157,#155,#85,.T.);
#190=EDGE_CURVE('',#158,#156,#86,.T.);
#191=EDGE_CURVE('',#157,#158,#87,.T.);
#192=EDGE_CURVE('',#157,#159,#88,.T.);
#193=EDGE_CURVE('',#160,#158,#89,.T.);
#194=EDGE_CURVE('',#159,#160,#90,.T.);
#195=EDGE_CURVE('',#159,#161,#91,.T.);
#196=EDGE_CURVE('',#162,#160,#92,.T.);
#197=EDGE_CURVE('',#161,#162,#93,.T.);
#198=EDGE_CURVE('',#163,#161,#94,.T.);
#199=EDGE_CURVE('',#164,#162,#95,.T.);
#200=EDGE_CURVE('',#163,#164,#96,.T.);
#201=EDGE_CURVE('',#165,#163,#97,.T.);
#202=EDGE_CURVE('',#166,#164,#98,.T.);
#203=EDGE_CURVE('',#165,#166,#99,.T.);
#204=EDGE_CURVE('',#147,#165,#100,.T.);
#205=EDGE_CURVE('',#149,#166,#101,.T.);
#206=ORIENTED_EDGE('',*,*,#167,.F.);
#207=ORIENTED_EDGE('',*,*,#168,.T.);
#208=ORIENTED_EDGE('',*,*,#169,.F.);
#209=ORIENTED_EDGE('',*,*,#168,.F.);
#210=ORIENTED_EDGE('',*,*,#170,.F.);
#211=ORIENTED_EDGE('',*,*,#171,.T.);
#212=ORIENTED_EDGE('',*,*,#172,.F.);
#213=ORIENTED_EDGE('',*,*,#171,.F.);
#214=ORIENTED_EDGE('',*,*,#173,.F.);
#215=ORIENTED_EDGE('',*,*,#174,.T.);
#216=ORIENTED_EDGE('',*,*,#175,.F.);
#217=ORIENTED_EDGE('',*,*,#174,.F.);
#218=ORIENTED_EDGE('',*,*,#176,.F.);
#219=ORIENTED_EDGE('',*,*,#177,.T.);
#220=ORIENTED_EDGE('',*,*,#178,.F.);
#221=ORIENTED_EDGE('',*,*,#179,.F.);
#222=ORIENTED_EDGE('',*,*,#180,.F.);
#223=ORIENTED_EDGE('',*,*,#179,.T.);
#224=ORIENTED_EDGE('',*,*,#181,.F.);
#225=ORIENTED_EDGE('',*,*,#182,.F.);
#226=ORIENTED_EDGE('',*,*,#169,.T.);
#227=ORIENTED_EDGE('',*,*,#172,.T.);
#228=ORIENTED_EDGE('',*,*,#183,.F.);
#229=ORIENTED_EDGE('',*,*,#182,.T.);
#230=ORIENTED_EDGE('',*,*,#184,.F.);
#231=ORIENTED_EDGE('',*,*,#185,.F.);
#232=ORIENTED_EDGE('',*,*,#186,.T.);
#233=ORIENTED_EDGE('',*,*,#185,.T.);
#234=ORIENTED_EDGE('',*,*,#187,.F.);
#235=ORIENTED_EDGE('',*,*,#188,.F.);
#236=ORIENTED_EDGE('',*,*,#167,.T.);
#237=ORIENTED_EDGE('',*,*,#170,.T.);
#238=ORIENTED_EDGE('',*,*,#189,.T.);
#239=ORIENTED_EDGE('',*,*,#188,.T.);
#240=ORIENTED_EDGE('',*,*,#190,.F.);
#241=ORIENTED_EDGE('',*,*,#191,.F.);
#242=ORIENTED_EDGE('',*,*,#192,.F.);
#243=ORIENTED_EDGE('',*,*,#191,.T.);
#244=ORIENTED_EDGE('',*,*,#193,.F.);
#245=ORIENTED_EDGE('',*,*,#194,.F.);
#246=ORIENTED_EDGE('',*,*,#195,.F.);
#247=ORIENTED_EDGE('',*,*,#194,.T.);
#248=ORIENTED_EDGE('',*,*,#196,.F.);
#249=ORIENTED_EDGE('',*,*,#197,.F.);
#250=ORIENTED_EDGE('',*,*,#175,.T.);
#251=ORIENTED_EDGE('',*,*,#198,.T.);
#252=ORIENTED_EDGE('',*,*,#197,.T.);
#253=ORIENTED_EDGE('',*,*,#199,.F.);
#254=ORIENTED_EDGE('',*,*,#200,.F.);
#255=ORIENTED_EDGE('',*,*,#201,.T.);
#256=ORIENTED_EDGE('',*,*,#200,.T.);
#257=ORIENTED_EDGE('',*,*,#202,.F.);
#258=ORIENTED_EDGE('',*,*,#203,.F.);
#259=ORIENTED_EDGE('',*,*,#173,.T.);
#260=ORIENTED_EDGE('',*,*,#204,.T.);
#261=ORIENTED_EDGE('',*,*,#203,.T.);
#262=ORIENTED_EDGE('',*,*,#205,.F.);
#263=ORIENTED_EDGE('',*,*,#177,.F.);
#264=ORIENTED_EDGE('',*,*,#205,.T.);
#265=ORIENTED_EDGE('',*,*,#202,.T.);
#266=ORIENTED_EDGE('',*,*,#199,.T.);
#267=ORIENTED_EDGE('',*,*,#196,.T.);
#268=ORIENTED_EDGE('',*,*,#193,.T.);
#269=ORIENTED_EDGE('',*,*,#190,.T.);
#270=ORIENTED_EDGE('',*,*,#187,.T.);
#271=ORIENTED_EDGE('',*,*,#184,.T.);
#272=ORIENTED_EDGE('',*,*,#181,.T.);
#273=ORIENTED_EDGE('',*,*,#178,.T.);
#274=ORIENTED_EDGE('',*,*,#204,.F.);
#275=ORIENTED_EDGE('',*,*,#176,.T.);
#276=ORIENTED_EDGE('',*,*,#180,.T.);
#277=ORIENTED_EDGE('',*,*,#183,.T.);
#278=ORIENTED_EDGE('',*,*,#186,.F.);
#279=ORIENTED_EDGE('',*,*,#189,.F.);
#280=ORIENTED_EDGE('',*,*,#192,.T.);
#281=ORIENTED_EDGE('',*,*,#195,.T.);
#282=ORIENTED_EDGE('',*,*,#198,.F.);
#283=ORIENTED_EDGE('',*,*,#201,.F.);
#284=CYLINDRICAL_SURFACE('',#316,5.);
#285=CYLINDRICAL_SURFACE('',#319,5.);
#286=CYLINDRICAL_SURFACE('',#322,12.);
#287=ADVANCED_FACE('',(#33),#284,.F.);
#288=ADVANCED_FACE('',(#34),#285,.F.);
#289=ADVANCED_FACE('',(#35),#286,.F.);
#290=ADVANCED_FACE('',(#36),#21,.T.);
#291=ADVANCED_FACE('',(#37,#15,#16),#22,.T.);
#292=ADVANCED_FACE('',(#38),#23,.T.);
#293=ADVANCED_FACE('',(#39,#17,#18),#24,.T.);
#294=ADVANCED_FACE('',(#40),#25,.T.);
#295=ADVANCED_FACE('',(#41),#26,.T.);
#296=ADVANCED_FACE('',(#42,#19),#27,.T.);
#297=ADVANCED_FACE('',(#43),#28,.T.);
#298=ADVANCED_FACE('',(#44,#20),#29,.T.);
#299=ADVANCED_FACE('',(#45),#30,.T.);
#300=ADVANCED_FACE('',(#46),#31,.T.);
#301=ADVANCED_FACE('',(#47),#32,.F.);
#302=CLOSED_SHELL('',(#287,#288,#289,#290,#291,#292,#293,#294,#295,#296,
#297,#298,#299,#300,#301));
#303=DERIVED_UNIT_ELEMENT(#305,1.);
#304=DERIVED_UNIT_ELEMENT(#500,3.);
#305=(
MASS_UNIT()
NAMED_UNIT(*)
SI_UNIT(.KILO.,.GRAM.)
);
#306=DERIVED_UNIT((#303,#304));
#307=MEASURE_REPRESENTATION_ITEM('density measure',
POSITIVE_RATIO_MEASURE(7850.),#306);
#308=PROPERTY_DEFINITION_REPRESENTATION(#313,#310);
#309=PROPERTY_DEFINITION_REPRESENTATION(#314,#311);
#310=REPRESENTATION('material name',(#312),#497);
#311=REPRESENTATION('density',(#307),#497);
#312=DESCRIPTIVE_REPRESENTATION_ITEM('Acier','Acier');
#313=PROPERTY_DEFINITION('material property','material name',#507);
#314=PROPERTY_DEFINITION('material property','density of part',#507);
#315=AXIS2_PLACEMENT_3D('placement',#414,#337,#338);
#316=AXIS2_PLACEMENT_3D('',#415,#339,#340);
#317=AXIS2_PLACEMENT_3D('',#417,#341,#342);
#318=AXIS2_PLACEMENT_3D('',#420,#344,#345);
#319=AXIS2_PLACEMENT_3D('',#421,#346,#347);
#320=AXIS2_PLACEMENT_3D('',#423,#348,#349);
#321=AXIS2_PLACEMENT_3D('',#426,#351,#352);
#322=AXIS2_PLACEMENT_3D('',#427,#353,#354);
#323=AXIS2_PLACEMENT_3D('',#429,#355,#356);
#324=AXIS2_PLACEMENT_3D('',#432,#358,#359);
#325=AXIS2_PLACEMENT_3D('',#433,#360,#361);
#326=AXIS2_PLACEMENT_3D('',#442,#366,#367);
#327=AXIS2_PLACEMENT_3D('',#448,#371,#372);
#328=AXIS2_PLACEMENT_3D('',#454,#376,#377);
#329=AXIS2_PLACEMENT_3D('',#460,#381,#382);
#330=AXIS2_PLACEMENT_3D('',#466,#386,#387);
#331=AXIS2_PLACEMENT_3D('',#472,#391,#392);
#332=AXIS2_PLACEMENT_3D('',#478,#396,#397);
#333=AXIS2_PLACEMENT_3D('',#484,#401,#402);
#334=AXIS2_PLACEMENT_3D('',#490,#406,#407);
#335=AXIS2_PLACEMENT_3D('',#493,#410,#411);
#336=AXIS2_PLACEMENT_3D('',#494,#412,#413);
#337=DIRECTION('axis',(0.,0.,1.));
#338=DIRECTION('refdir',(1.,0.,0.));
#339=DIRECTION('center_axis',(-1.,0.,0.));
#340=DIRECTION('ref_axis',(0.,1.,0.));
#341=DIRECTION('center_axis',(-1.,0.,0.));
#342=DIRECTION('ref_axis',(0.,1.,0.));
#343=DIRECTION('',(-1.,0.,0.));
#344=DIRECTION('center_axis',(1.,0.,0.));
#345=DIRECTION('ref_axis',(0.,1.,0.));
#346=DIRECTION('center_axis',(-1.,0.,0.));
#347=DIRECTION('ref_axis',(0.,1.,0.));
#348=DIRECTION('center_axis',(-1.,0.,0.));
#349=DIRECTION('ref_axis',(0.,1.,0.));
#350=DIRECTION('',(-1.,0.,0.));
#351=DIRECTION('center_axis',(1.,0.,0.));
#352=DIRECTION('ref_axis',(0.,1.,0.));
#353=DIRECTION('center_axis',(7.17719935111212E-16,0.,-1.));
#354=DIRECTION('ref_axis',(-1.,0.,-7.17719935111212E-16));
#355=DIRECTION('center_axis',(7.10542735760101E-16,0.,-1.));
#356=DIRECTION('ref_axis',(-1.,0.,-7.17719935111212E-16));
#357=DIRECTION('',(7.17719935111212E-16,0.,-1.));
#358=DIRECTION('center_axis',(-7.60975773525135E-16,0.,1.));
#359=DIRECTION('ref_axis',(-1.,0.,-7.17719935111212E-16));
#360=DIRECTION('center_axis',(-2.77555756156289E-16,0.,1.));
#361=DIRECTION('ref_axis',(1.,0.,2.77555756156289E-16));
#362=DIRECTION('',(-1.,0.,-2.77555756156289E-16));
#363=DIRECTION('',(0.,1.,0.));
#364=DIRECTION('',(1.,0.,2.77555756156289E-16));
#365=DIRECTION('',(0.,1.,0.));
#366=DIRECTION('center_axis',(-1.,0.,0.));
#367=DIRECTION('ref_axis',(0.,0.,1.));
#368=DIRECTION('',(0.,0.,-1.));
#369=DIRECTION('',(0.,0.,1.));
#370=DIRECTION('',(0.,1.,0.));
#371=DIRECTION('center_axis',(0.,0.,-1.));
#372=DIRECTION('ref_axis',(-1.,0.,0.));
#373=DIRECTION('',(1.,0.,0.));
#374=DIRECTION('',(-1.,0.,0.));
#375=DIRECTION('',(0.,1.,0.));
#376=DIRECTION('center_axis',(1.,0.,0.));
#377=DIRECTION('ref_axis',(0.,0.,-1.));
#378=DIRECTION('',(0.,0.,-1.));
#379=DIRECTION('',(0.,0.,-1.));
#380=DIRECTION('',(0.,1.,0.));
#381=DIRECTION('center_axis',(0.,0.,-1.));
#382=DIRECTION('ref_axis',(-1.,0.,0.));
#383=DIRECTION('',(-1.,0.,0.));
#384=DIRECTION('',(-1.,0.,0.));
#385=DIRECTION('',(0.,1.,0.));
#386=DIRECTION('center_axis',(0.707106781186548,0.,-0.707106781186547));
#387=DIRECTION('ref_axis',(-0.707106781186547,0.,-0.707106781186548));
#388=DIRECTION('',(0.707106781186547,0.,0.707106781186548));
#389=DIRECTION('',(-0.707106781186547,0.,-0.707106781186548));
#390=DIRECTION('',(0.,1.,0.));
#391=DIRECTION('center_axis',(7.60975773525135E-16,0.,-1.));
#392=DIRECTION('ref_axis',(-1.,0.,-7.60975773525135E-16));
#393=DIRECTION('',(1.,0.,7.60975773525135E-16));
#394=DIRECTION('',(-1.,0.,-7.60975773525135E-16));
#395=DIRECTION('',(0.,1.,0.));
#396=DIRECTION('center_axis',(1.,0.,0.));
#397=DIRECTION('ref_axis',(0.,0.,-1.));
#398=DIRECTION('',(0.,0.,-1.));
#399=DIRECTION('',(0.,0.,-1.));
#400=DIRECTION('',(0.,1.,0.));
#401=DIRECTION('center_axis',(-7.10542735760101E-16,0.,1.));
#402=DIRECTION('ref_axis',(1.,0.,7.10542735760101E-16));
#403=DIRECTION('',(1.,0.,7.10542735760101E-16));
#404=DIRECTION('',(1.,0.,7.10542735760101E-16));
#405=DIRECTION('',(0.,1.,0.));
#406=DIRECTION('center_axis',(-0.707106781186548,0.,0.707106781186547));
#407=DIRECTION('ref_axis',(0.707106781186547,0.,0.707106781186548));
#408=DIRECTION('',(0.707106781186547,0.,0.707106781186548));
#409=DIRECTION('',(0.707106781186547,0.,0.707106781186548));
#410=DIRECTION('center_axis',(0.,1.,0.));
#411=DIRECTION('ref_axis',(0.,0.,1.));
#412=DIRECTION('center_axis',(0.,1.,0.));
#413=DIRECTION('ref_axis',(1.,0.,0.));
#414=CARTESIAN_POINT('',(0.,0.,0.));
#415=CARTESIAN_POINT('Origin',(-21.9660956417753,15.,-31.6923824436443));
#416=CARTESIAN_POINT('',(-21.9660956417753,10.,-31.6923824436443));
#417=CARTESIAN_POINT('Origin',(-21.9660956417753,15.,-31.6923824436443));
#418=CARTESIAN_POINT('',(-29.9660956417753,10.,-31.6923824436443));
#419=CARTESIAN_POINT('',(-21.9660956417753,10.,-31.6923824436443));
#420=CARTESIAN_POINT('Origin',(-29.9660956417753,15.,-31.6923824436443));
#421=CARTESIAN_POINT('Origin',(-21.9660956417753,65.,-31.6923824436443));
#422=CARTESIAN_POINT('',(-21.9660956417753,60.,-31.6923824436443));
#423=CARTESIAN_POINT('Origin',(-21.9660956417753,65.,-31.6923824436443));
#424=CARTESIAN_POINT('',(-29.9660956417753,60.,-31.6923824436443));
#425=CARTESIAN_POINT('',(-21.9660956417753,60.,-31.6923824436443));
#426=CARTESIAN_POINT('Origin',(-29.9660956417753,65.,-31.6923824436443));
#427=CARTESIAN_POINT('Origin',(155.033904358225,40.,130.307617556356));
#428=CARTESIAN_POINT('',(167.033904358225,40.,130.307617556356));
#429=CARTESIAN_POINT('Origin',(155.033904358225,40.,130.307617556356));
#430=CARTESIAN_POINT('',(167.033904358225,40.,122.307617556356));
#431=CARTESIAN_POINT('',(167.033904358225,40.,130.307617556356));
#432=CARTESIAN_POINT('Origin',(155.033904358225,40.,122.307617556356));
#433=CARTESIAN_POINT('Origin',(-29.9660956417753,0.,-9.69238244364432));
#434=CARTESIAN_POINT('',(-9.96609564177528,0.,-9.69238244364432));
#435=CARTESIAN_POINT('',(-29.9660956417753,0.,-9.69238244364432));
#436=CARTESIAN_POINT('',(-9.96609564177528,0.,-9.69238244364432));
#437=CARTESIAN_POINT('',(-9.96609564177528,80.,-9.69238244364432));
#438=CARTESIAN_POINT('',(-9.96609564177528,0.,-9.69238244364432));
#439=CARTESIAN_POINT('',(-29.9660956417753,80.,-9.69238244364432));
#440=CARTESIAN_POINT('',(-9.96609564177528,80.,-9.69238244364432));
#441=CARTESIAN_POINT('',(-29.9660956417753,0.,-9.69238244364432));
#442=CARTESIAN_POINT('Origin',(-29.9660956417753,0.,-49.6923824436443));
#443=CARTESIAN_POINT('',(-29.9660956417753,0.,-49.6923824436443));
#444=CARTESIAN_POINT('',(-29.9660956417753,0.,-9.69238244364432));
#445=CARTESIAN_POINT('',(-29.9660956417753,80.,-49.6923824436443));
#446=CARTESIAN_POINT('',(-29.9660956417753,80.,-9.69238244364432));
#447=CARTESIAN_POINT('',(-29.9660956417753,0.,-49.6923824436443));
#448=CARTESIAN_POINT('Origin',(-21.9660956417753,0.,-49.6923824436443));
#449=CARTESIAN_POINT('',(-21.9660956417753,0.,-49.6923824436443));
#450=CARTESIAN_POINT('',(-29.9660956417753,0.,-49.6923824436443));
#451=CARTESIAN_POINT('',(-21.9660956417753,80.,-49.6923824436443));
#452=CARTESIAN_POINT('',(-29.9660956417753,80.,-49.6923824436443));
#453=CARTESIAN_POINT('',(-21.9660956417753,0.,-49.6923824436443));
#454=CARTESIAN_POINT('Origin',(-21.9660956417753,0.,-17.6923824436443));
#455=CARTESIAN_POINT('',(-21.9660956417753,0.,-17.6923824436443));
#456=CARTESIAN_POINT('',(-21.9660956417753,0.,-17.6923824436443));
#457=CARTESIAN_POINT('',(-21.9660956417753,80.,-17.6923824436443));
#458=CARTESIAN_POINT('',(-21.9660956417753,80.,-17.6923824436443));
#459=CARTESIAN_POINT('',(-21.9660956417753,0.,-17.6923824436443));
#460=CARTESIAN_POINT('Origin',(-6.65238714279051,0.,-17.6923824436443));
#461=CARTESIAN_POINT('',(-6.65238714279051,0.,-17.6923824436443));
#462=CARTESIAN_POINT('',(-6.65238714279051,0.,-17.6923824436443));
#463=CARTESIAN_POINT('',(-6.65238714279051,80.,-17.6923824436443));
#464=CARTESIAN_POINT('',(-6.65238714279051,80.,-17.6923824436443));
#465=CARTESIAN_POINT('',(-6.65238714279051,0.,-17.6923824436443));
#466=CARTESIAN_POINT('Origin',(133.347612857209,0.,122.307617556356));
#467=CARTESIAN_POINT('',(133.347612857209,0.,122.307617556356));
#468=CARTESIAN_POINT('',(-6.65238714279051,0.,-17.6923824436443));
#469=CARTESIAN_POINT('',(133.347612857209,80.,122.307617556356));
#470=CARTESIAN_POINT('',(-6.65238714279051,80.,-17.6923824436443));
#471=CARTESIAN_POINT('',(133.347612857209,0.,122.307617556356));
#472=CARTESIAN_POINT('Origin',(180.033904358225,0.,122.307617556356));
#473=CARTESIAN_POINT('',(180.033904358225,0.,122.307617556356));
#474=CARTESIAN_POINT('',(133.347612857209,0.,122.307617556356));
#475=CARTESIAN_POINT('',(180.033904358225,80.,122.307617556356));
#476=CARTESIAN_POINT('',(133.347612857209,80.,122.307617556356));
#477=CARTESIAN_POINT('',(180.033904358225,0.,122.307617556356));
#478=CARTESIAN_POINT('Origin',(180.033904358225,0.,130.307617556356));
#479=CARTESIAN_POINT('',(180.033904358225,0.,130.307617556356));
#480=CARTESIAN_POINT('',(180.033904358225,0.,130.307617556356));
#481=CARTESIAN_POINT('',(180.033904358225,80.,130.307617556356));
#482=CARTESIAN_POINT('',(180.033904358225,80.,130.307617556356));
#483=CARTESIAN_POINT('',(180.033904358225,0.,130.307617556356));
#484=CARTESIAN_POINT('Origin',(130.033904358225,0.,130.307617556356));
#485=CARTESIAN_POINT('',(130.033904358225,0.,130.307617556356));
#486=CARTESIAN_POINT('',(130.033904358225,0.,130.307617556356));
#487=CARTESIAN_POINT('',(130.033904358225,80.,130.307617556356));
#488=CARTESIAN_POINT('',(130.033904358225,80.,130.307617556356));
#489=CARTESIAN_POINT('',(130.033904358225,0.,130.307617556356));
#490=CARTESIAN_POINT('Origin',(-9.96609564177528,0.,-9.69238244364432));
#491=CARTESIAN_POINT('',(-9.96609564177528,0.,-9.69238244364432));
#492=CARTESIAN_POINT('',(-9.96609564177528,80.,-9.69238244364432));
#493=CARTESIAN_POINT('Origin',(75.0339043582247,80.,40.3076175563557));
#494=CARTESIAN_POINT('Origin',(75.0339043582247,0.,40.3076175563557));
#495=UNCERTAINTY_MEASURE_WITH_UNIT(LENGTH_MEASURE(0.01),#499,
'DISTANCE_ACCURACY_VALUE',
'Maximum model space distance between geometric entities at asserted c
onnectivities');
#496=UNCERTAINTY_MEASURE_WITH_UNIT(LENGTH_MEASURE(0.01),#499,
'DISTANCE_ACCURACY_VALUE',
'Maximum model space distance between geometric entities at asserted c
onnectivities');
#497=(
GEOMETRIC_REPRESENTATION_CONTEXT(3)
GLOBAL_UNCERTAINTY_ASSIGNED_CONTEXT((#495))
GLOBAL_UNIT_ASSIGNED_CONTEXT((#499,#501,#502))
REPRESENTATION_CONTEXT('','3D')
);
#498=(
GEOMETRIC_REPRESENTATION_CONTEXT(3)
GLOBAL_UNCERTAINTY_ASSIGNED_CONTEXT((#496))
GLOBAL_UNIT_ASSIGNED_CONTEXT((#499,#501,#502))
REPRESENTATION_CONTEXT('','3D')
);
#499=(
LENGTH_UNIT()
NAMED_UNIT(*)
SI_UNIT(.MILLI.,.METRE.)
);
#500=(
LENGTH_UNIT()
NAMED_UNIT(*)
SI_UNIT($,.METRE.)
);
#501=(
NAMED_UNIT(*)
PLANE_ANGLE_UNIT()
SI_UNIT($,.RADIAN.)
);
#502=(
NAMED_UNIT(*)
SI_UNIT($,.STERADIAN.)
SOLID_ANGLE_UNIT()
);
#503=SHAPE_DEFINITION_REPRESENTATION(#504,#505);
#504=PRODUCT_DEFINITION_SHAPE('',$,#507);
#505=SHAPE_REPRESENTATION('',(#315),#497);
#506=PRODUCT_DEFINITION_CONTEXT('part definition',#511,'design');
#507=PRODUCT_DEFINITION('Attelage remorque Husqvarna',
'Attelage remorque Husqvarna v8',#508,#506);
#508=PRODUCT_DEFINITION_FORMATION('',$,#513);
#509=PRODUCT_RELATED_PRODUCT_CATEGORY('Attelage remorque Husqvarna v8',
'Attelage remorque Husqvarna v8',(#513));
#510=APPLICATION_PROTOCOL_DEFINITION('international standard',
'automotive_design',2009,#511);
#511=APPLICATION_CONTEXT(
'Core Data for Automotive Mechanical Design Process');
#512=PRODUCT_CONTEXT('part definition',#511,'mechanical');
#513=PRODUCT('Attelage remorque Husqvarna',
'Attelage remorque Husqvarna v8',$,(#512));
#514=PRESENTATION_STYLE_ASSIGNMENT((#515));
#515=SURFACE_STYLE_USAGE(.BOTH.,#516);
#516=SURFACE_SIDE_STYLE('',(#517));
#517=SURFACE_STYLE_FILL_AREA(#518);
#518=FILL_AREA_STYLE('Acier - Satin\X\E9',(#519));
#519=FILL_AREA_STYLE_COLOUR('Acier - Satin\X\E9',#520);
#520=COLOUR_RGB('Acier - Satin\X\E9',0.627450980392157,0.627450980392157,
0.627450980392157);
ENDSEC;
END-ISO-10303-21;
