ISO-10303-21;
HEADER;
FILE_DESCRIPTION(('CATIA V5 STEP Exchange'),'2;1');

FILE_NAME('C:\\Users\\Rivet\\Documents\\C2PU\\Hardware\\TX_W_Telescope_EnsembleFocal_2015\\Focuseur_MotoReducteur\\Modele_CATIA_v04_Crouzet82474_83\\CATDrawings\\Usineur_fr\\MotoReducteur_Axe_E.stp','2020-11-26T11:34:56+00:00',('none'),('none'),'CATIA Version 5-6 Release 2017 SP5','CATIA V5 STEP AP203','none');

FILE_SCHEMA(('CONFIG_CONTROL_DESIGN'));

ENDSEC;
DATA;
#5=PRODUCT('MotoReducteur_Axe_E','01.03.009.001.013','',(#2)) ;
#1=APPLICATION_CONTEXT('configuration controlled 3D design of mechanical parts and assemblies') ;
#14=PRODUCT_DEFINITION('Motor\X2\00E9\X0\ducteur: Axe E',' ',#6,#3) ;
#16=SECURITY_CLASSIFICATION(' ',' ',#15) ;
#15=SECURITY_CLASSIFICATION_LEVEL('unclassified') ;
#46=CARTESIAN_POINT(' ',(0.,0.,0.)) ;
#51=CARTESIAN_POINT('Axis2P3D Location',(0.,1.5,12.2)) ;
#56=CARTESIAN_POINT('Line Origine',(1.32287565553,1.5,10.2)) ;
#60=CARTESIAN_POINT('Vertex',(1.32287565553,1.5,12.2)) ;
#62=CARTESIAN_POINT('Vertex',(1.32287565553,1.5,8.2)) ;
#65=CARTESIAN_POINT('Line Origine',(2.22044604925E-016,1.5,8.2)) ;
#69=CARTESIAN_POINT('Vertex',(-1.32287565553,1.5,8.2)) ;
#72=CARTESIAN_POINT('Line Origine',(-1.32287565553,1.5,10.2)) ;
#76=CARTESIAN_POINT('Vertex',(-1.32287565553,1.5,12.2)) ;
#79=CARTESIAN_POINT('Line Origine',(2.22044604925E-016,1.5,12.2)) ;
#91=CARTESIAN_POINT('Axis2P3D Location',(0.,2.,0.)) ;
#96=CARTESIAN_POINT('Axis2P3D Location',(0.,0.,0.)) ;
#100=CARTESIAN_POINT('Vertex',(-0.958851077208,1.75516512378,0.)) ;
#102=CARTESIAN_POINT('Vertex',(0.958851077208,-1.75516512378,0.)) ;
#105=CARTESIAN_POINT('Axis2P3D Location',(0.,0.,0.)) ;
#114=CARTESIAN_POINT('Axis2P3D Location',(0.,0.,0.)) ;
#118=CARTESIAN_POINT('Vertex',(0.479425538604,-0.87758256189,0.)) ;
#120=CARTESIAN_POINT('Vertex',(-0.479425538604,0.87758256189,0.)) ;
#123=CARTESIAN_POINT('Axis2P3D Location',(0.,0.,0.)) ;
#133=CARTESIAN_POINT('Axis2P3D Location',(0.,0.,5.)) ;
#138=CARTESIAN_POINT('Line Origine',(0.479425538604,-0.87758256189,-2.)) ;
#142=CARTESIAN_POINT('Vertex',(0.479425538604,-0.87758256189,-3.9)) ;
#145=CARTESIAN_POINT('Line Origine',(-0.479425538604,0.87758256189,-2.)) ;
#149=CARTESIAN_POINT('Vertex',(-0.479425538604,0.87758256189,-3.9)) ;
#152=CARTESIAN_POINT('Axis2P3D Location',(0.,0.,-3.9)) ;
#164=CARTESIAN_POINT('Axis2P3D Location',(0.,0.,-3.9)) ;
#176=CARTESIAN_POINT('Axis2P3D Location',(8.881784197E-016,-1.4294121442E-015,-4.9)) ;
#181=CARTESIAN_POINT('Line Origine',(-0.455454261674,0.833703433796,-3.95)) ;
#185=CARTESIAN_POINT('Vertex',(-0.431482984744,0.789824305701,-4.)) ;
#188=CARTESIAN_POINT('Axis2P3D Location',(-1.11022302463E-016,-1.17961196366E-016,-4.)) ;
#192=CARTESIAN_POINT('Vertex',(0.431482984744,-0.789824305701,-4.)) ;
#195=CARTESIAN_POINT('Line Origine',(0.455454261674,-0.833703433796,-3.95)) ;
#207=CARTESIAN_POINT('Axis2P3D Location',(-3.5527136788E-015,1.49880108324E-015,-4.9)) ;
#212=CARTESIAN_POINT('Axis2P3D Location',(-5.55111512313E-017,1.18329135783E-030,-4.)) ;
#224=CARTESIAN_POINT('Axis2P3D Location',(0.,0.,-4.)) ;
#234=CARTESIAN_POINT('Axis2P3D Location',(0.,2.,14.)) ;
#239=CARTESIAN_POINT('Axis2P3D Location',(-2.84094210361E-016,4.4408920985E-016,14.)) ;
#243=CARTESIAN_POINT('Vertex',(0.910908523348,-1.66740686759,14.)) ;
#245=CARTESIAN_POINT('Vertex',(-0.910908523348,1.66740686759,14.)) ;
#248=CARTESIAN_POINT('Axis2P3D Location',(-2.84094210361E-016,4.4408920985E-016,14.)) ;
#258=CARTESIAN_POINT('Axis2P3D Location',(8.43769498715E-015,-5.1486592767E-015,15.9)) ;
#263=CARTESIAN_POINT('Line Origine',(-0.934879800278,1.71128599569,13.95)) ;
#267=CARTESIAN_POINT('Vertex',(-0.958851077208,1.75516512378,13.9)) ;
#270=CARTESIAN_POINT('Axis2P3D Location',(-4.4408920985E-016,5.55111512313E-017,13.9)) ;
#274=CARTESIAN_POINT('Vertex',(0.958851077208,-1.75516512378,13.9)) ;
#277=CARTESIAN_POINT('Line Origine',(0.934879800278,-1.71128599569,13.95)) ;
#289=CARTESIAN_POINT('Axis2P3D Location',(-4.4408920985E-016,8.54871728961E-015,15.9)) ;
#294=CARTESIAN_POINT('Axis2P3D Location',(6.66133814775E-016,-3.33066907388E-016,13.9)) ;
#306=CARTESIAN_POINT('Axis2P3D Location',(0.,0.,5.)) ;
#311=CARTESIAN_POINT('Line Origine',(-0.958851077208,1.75516512378,7.)) ;
#315=CARTESIAN_POINT('Vertex',(-0.958851077208,1.75516512378,8.2)) ;
#318=CARTESIAN_POINT('Line Origine',(0.958851077208,-1.75516512378,7.)) ;
#323=CARTESIAN_POINT('Line Origine',(-0.958851077208,1.75516512378,7.)) ;
#327=CARTESIAN_POINT('Vertex',(-0.958851077208,1.75516512378,12.2)) ;
#330=CARTESIAN_POINT('Axis2P3D Location',(0.,0.,12.2)) ;
#335=CARTESIAN_POINT('Axis2P3D Location',(0.,0.,8.2)) ;
#351=CARTESIAN_POINT('Axis2P3D Location',(0.,0.,8.2)) ;
#356=CARTESIAN_POINT('Axis2P3D Location',(0.,0.,12.2)) ;
#372=CARTESIAN_POINT('Axis2P3D Location',(0.,2.,8.2)) ;
#383=CARTESIAN_POINT('Axis2P3D Location',(0.,1.5,12.2)) ;
#52=DIRECTION('Axis2P3D Direction',(0.,1.,0.)) ;
#53=DIRECTION('Axis2P3D XDirection',(0.,0.,-1.)) ;
#57=DIRECTION('Vector Direction',(0.,0.,-1.)) ;
#66=DIRECTION('Vector Direction',(-1.,0.,0.)) ;
#73=DIRECTION('Vector Direction',(0.,0.,-1.)) ;
#80=DIRECTION('Vector Direction',(-1.,0.,0.)) ;
#92=DIRECTION('Axis2P3D Direction',(0.,0.,1.)) ;
#93=DIRECTION('Axis2P3D XDirection',(1.,0.,0.)) ;
#97=DIRECTION('Axis2P3D Direction',(0.,0.,1.)) ;
#106=DIRECTION('Axis2P3D Direction',(0.,0.,1.)) ;
#115=DIRECTION('Axis2P3D Direction',(0.,0.,1.)) ;
#124=DIRECTION('Axis2P3D Direction',(0.,0.,1.)) ;
#134=DIRECTION('Axis2P3D Direction',(0.,0.,1.)) ;
#135=DIRECTION('Axis2P3D XDirection',(-0.479425538604,0.87758256189,0.)) ;
#139=DIRECTION('Vector Direction',(0.,0.,1.)) ;
#146=DIRECTION('Vector Direction',(0.,0.,1.)) ;
#153=DIRECTION('Axis2P3D Direction',(0.,0.,1.)) ;
#165=DIRECTION('Axis2P3D Direction',(0.,0.,1.)) ;
#177=DIRECTION('Axis2P3D Direction',(-1.11022302463E-015,1.45716771982E-015,1.)) ;
#178=DIRECTION('Axis2P3D XDirection',(-0.479425538604,0.87758256189,-1.84392462235E-015)) ;
#182=DIRECTION('Vector Direction',(-0.339005049421,0.620544580564,0.707106781187)) ;
#189=DIRECTION('Axis2P3D Direction',(-2.41957364315E-016,-1.32181910561E-016,1.)) ;
#196=DIRECTION('Vector Direction',(0.339005049421,-0.620544580564,0.707106781187)) ;
#208=DIRECTION('Axis2P3D Direction',(3.88578058619E-015,-1.66533453694E-015,1.)) ;
#209=DIRECTION('Axis2P3D XDirection',(-0.520296023213,-0.853985976599,6.58544507983E-016)) ;
#213=DIRECTION('Axis2P3D Direction',(3.57381949596E-015,-2.17737073252E-015,1.)) ;
#225=DIRECTION('Axis2P3D Direction',(0.,0.,1.)) ;
#226=DIRECTION('Axis2P3D XDirection',(1.,0.,0.)) ;
#235=DIRECTION('Axis2P3D Direction',(0.,0.,1.)) ;
#236=DIRECTION('Axis2P3D XDirection',(1.,0.,0.)) ;
#240=DIRECTION('Axis2P3D Direction',(0.,0.,1.)) ;
#249=DIRECTION('Axis2P3D Direction',(0.,0.,1.)) ;
#259=DIRECTION('Axis2P3D Direction',(-4.4408920985E-015,2.60208521397E-015,-1.)) ;
#260=DIRECTION('Axis2P3D XDirection',(-0.479425538604,0.87758256189,4.47810265428E-015)) ;
#264=DIRECTION('Vector Direction',(-0.339005049421,0.620544580564,-0.707106781187)) ;
#271=DIRECTION('Axis2P3D Direction',(2.32536856594E-015,1.27035463738E-015,1.)) ;
#278=DIRECTION('Vector Direction',(0.339005049421,-0.620544580564,-0.707106781187)) ;
#290=DIRECTION('Axis2P3D Direction',(5.55111512313E-016,-4.4408920985E-015,-1.)) ;
#291=DIRECTION('Axis2P3D XDirection',(-0.520296023213,-0.853985976599,3.55614034311E-015)) ;
#295=DIRECTION('Axis2P3D Direction',(-2.37804004725E-015,1.44883500845E-015,1.)) ;
#307=DIRECTION('Axis2P3D Direction',(0.,0.,1.)) ;
#308=DIRECTION('Axis2P3D XDirection',(-0.479425538604,0.87758256189,0.)) ;
#312=DIRECTION('Vector Direction',(0.,0.,1.)) ;
#319=DIRECTION('Vector Direction',(0.,0.,1.)) ;
#324=DIRECTION('Vector Direction',(0.,0.,1.)) ;
#331=DIRECTION('Axis2P3D Direction',(0.,0.,1.)) ;
#336=DIRECTION('Axis2P3D Direction',(0.,0.,1.)) ;
#352=DIRECTION('Axis2P3D Direction',(0.,0.,1.)) ;
#357=DIRECTION('Axis2P3D Direction',(0.,0.,1.)) ;
#373=DIRECTION('Axis2P3D Direction',(-0.,-0.,-1.)) ;
#374=DIRECTION('Axis2P3D XDirection',(0.,-1.,0.)) ;
#384=DIRECTION('Axis2P3D Direction',(0.,-0.,1.)) ;
#385=DIRECTION('Axis2P3D XDirection',(0.,1.,0.)) ;
#47=AXIS2_PLACEMENT_3D(' ',#46,$,$) ;
#54=AXIS2_PLACEMENT_3D('Plane Axis2P3D',#51,#52,#53) ;
#94=AXIS2_PLACEMENT_3D('Plane Axis2P3D',#91,#92,#93) ;
#98=AXIS2_PLACEMENT_3D('Circle Axis2P3D',#96,#97,$) ;
#107=AXIS2_PLACEMENT_3D('Circle Axis2P3D',#105,#106,$) ;
#116=AXIS2_PLACEMENT_3D('Circle Axis2P3D',#114,#115,$) ;
#125=AXIS2_PLACEMENT_3D('Circle Axis2P3D',#123,#124,$) ;
#136=AXIS2_PLACEMENT_3D('Cylinder Axis2P3D',#133,#134,#135) ;
#154=AXIS2_PLACEMENT_3D('Circle Axis2P3D',#152,#153,$) ;
#166=AXIS2_PLACEMENT_3D('Circle Axis2P3D',#164,#165,$) ;
#179=AXIS2_PLACEMENT_3D('Cone Axis2P3D',#176,#177,#178) ;
#190=AXIS2_PLACEMENT_3D('Circle Axis2P3D',#188,#189,$) ;
#210=AXIS2_PLACEMENT_3D('Cone Axis2P3D',#207,#208,#209) ;
#214=AXIS2_PLACEMENT_3D('Circle Axis2P3D',#212,#213,$) ;
#227=AXIS2_PLACEMENT_3D('Plane Axis2P3D',#224,#225,#226) ;
#237=AXIS2_PLACEMENT_3D('Plane Axis2P3D',#234,#235,#236) ;
#241=AXIS2_PLACEMENT_3D('Circle Axis2P3D',#239,#240,$) ;
#250=AXIS2_PLACEMENT_3D('Circle Axis2P3D',#248,#249,$) ;
#261=AXIS2_PLACEMENT_3D('Cone Axis2P3D',#258,#259,#260) ;
#272=AXIS2_PLACEMENT_3D('Circle Axis2P3D',#270,#271,$) ;
#292=AXIS2_PLACEMENT_3D('Cone Axis2P3D',#289,#290,#291) ;
#296=AXIS2_PLACEMENT_3D('Circle Axis2P3D',#294,#295,$) ;
#309=AXIS2_PLACEMENT_3D('Cylinder Axis2P3D',#306,#307,#308) ;
#332=AXIS2_PLACEMENT_3D('Circle Axis2P3D',#330,#331,$) ;
#337=AXIS2_PLACEMENT_3D('Circle Axis2P3D',#335,#336,$) ;
#353=AXIS2_PLACEMENT_3D('Circle Axis2P3D',#351,#352,$) ;
#358=AXIS2_PLACEMENT_3D('Circle Axis2P3D',#356,#357,$) ;
#375=AXIS2_PLACEMENT_3D('Plane Axis2P3D',#372,#373,#374) ;
#386=AXIS2_PLACEMENT_3D('Plane Axis2P3D',#383,#384,#385) ;
#40=PRODUCT_DEFINITION_SHAPE(' ',' ',#14) ;
#31=APPROVAL_PERSON_ORGANIZATION(#25,#21,#19) ;
#25=PERSON_AND_ORGANIZATION(#22,#23) ;
#22=PERSON(' ',' ',' ',$,$,$) ;
#23=ORGANIZATION(' ',' ',' ') ;
#21=APPROVAL(#20,' ') ;
#20=APPROVAL_STATUS('not_yet_approved') ;
#19=APPROVAL_ROLE('APPROVER') ;
#13=DATE_AND_TIME(#11,#12) ;
#12=LOCAL_TIME(12,34,56.,#10) ;
#10=COORDINATED_UNIVERSAL_TIME_OFFSET(0,0,.AHEAD.) ;
#85=ORIENTED_EDGE('',*,*,#64,.T.) ;
#86=ORIENTED_EDGE('',*,*,#71,.T.) ;
#87=ORIENTED_EDGE('',*,*,#78,.F.) ;
#88=ORIENTED_EDGE('',*,*,#83,.F.) ;
#111=ORIENTED_EDGE('',*,*,#104,.F.) ;
#112=ORIENTED_EDGE('',*,*,#109,.F.) ;
#129=ORIENTED_EDGE('',*,*,#122,.T.) ;
#130=ORIENTED_EDGE('',*,*,#127,.T.) ;
#158=ORIENTED_EDGE('',*,*,#144,.T.) ;
#159=ORIENTED_EDGE('',*,*,#127,.F.) ;
#160=ORIENTED_EDGE('',*,*,#151,.F.) ;
#161=ORIENTED_EDGE('',*,*,#156,.T.) ;
#170=ORIENTED_EDGE('',*,*,#151,.T.) ;
#171=ORIENTED_EDGE('',*,*,#122,.F.) ;
#172=ORIENTED_EDGE('',*,*,#144,.F.) ;
#173=ORIENTED_EDGE('',*,*,#168,.T.) ;
#201=ORIENTED_EDGE('',*,*,#187,.T.) ;
#202=ORIENTED_EDGE('',*,*,#194,.T.) ;
#203=ORIENTED_EDGE('',*,*,#199,.F.) ;
#204=ORIENTED_EDGE('',*,*,#156,.F.) ;
#218=ORIENTED_EDGE('',*,*,#199,.T.) ;
#219=ORIENTED_EDGE('',*,*,#216,.T.) ;
#220=ORIENTED_EDGE('',*,*,#187,.F.) ;
#221=ORIENTED_EDGE('',*,*,#168,.F.) ;
#230=ORIENTED_EDGE('',*,*,#194,.F.) ;
#231=ORIENTED_EDGE('',*,*,#216,.F.) ;
#254=ORIENTED_EDGE('',*,*,#247,.T.) ;
#255=ORIENTED_EDGE('',*,*,#252,.T.) ;
#283=ORIENTED_EDGE('',*,*,#269,.T.) ;
#284=ORIENTED_EDGE('',*,*,#276,.T.) ;
#285=ORIENTED_EDGE('',*,*,#281,.F.) ;
#286=ORIENTED_EDGE('',*,*,#252,.F.) ;
#300=ORIENTED_EDGE('',*,*,#281,.T.) ;
#301=ORIENTED_EDGE('',*,*,#298,.T.) ;
#302=ORIENTED_EDGE('',*,*,#269,.F.) ;
#303=ORIENTED_EDGE('',*,*,#247,.F.) ;
#341=ORIENTED_EDGE('',*,*,#317,.F.) ;
#342=ORIENTED_EDGE('',*,*,#104,.T.) ;
#343=ORIENTED_EDGE('',*,*,#322,.T.) ;
#344=ORIENTED_EDGE('',*,*,#276,.F.) ;
#345=ORIENTED_EDGE('',*,*,#329,.F.) ;
#346=ORIENTED_EDGE('',*,*,#334,.T.) ;
#347=ORIENTED_EDGE('',*,*,#78,.T.) ;
#348=ORIENTED_EDGE('',*,*,#339,.T.) ;
#362=ORIENTED_EDGE('',*,*,#329,.T.) ;
#363=ORIENTED_EDGE('',*,*,#298,.F.) ;
#364=ORIENTED_EDGE('',*,*,#322,.F.) ;
#365=ORIENTED_EDGE('',*,*,#109,.T.) ;
#366=ORIENTED_EDGE('',*,*,#317,.T.) ;
#367=ORIENTED_EDGE('',*,*,#355,.T.) ;
#368=ORIENTED_EDGE('',*,*,#64,.F.) ;
#369=ORIENTED_EDGE('',*,*,#360,.T.) ;
#378=ORIENTED_EDGE('',*,*,#355,.F.) ;
#379=ORIENTED_EDGE('',*,*,#339,.F.) ;
#380=ORIENTED_EDGE('',*,*,#71,.F.) ;
#389=ORIENTED_EDGE('',*,*,#360,.F.) ;
#390=ORIENTED_EDGE('',*,*,#83,.T.) ;
#391=ORIENTED_EDGE('',*,*,#334,.F.) ;
#131=FACE_BOUND('',#128,.T.) ;
#50=CLOSED_SHELL('Closed Shell',(#90,#132,#163,#175,#206,#223,#233,#257,#288,#305,#350,#371,#382,#393)) ;
#58=VECTOR('Line Direction',#57,1.) ;
#67=VECTOR('Line Direction',#66,1.) ;
#74=VECTOR('Line Direction',#73,1.) ;
#81=VECTOR('Line Direction',#80,1.) ;
#140=VECTOR('Line Direction',#139,1.) ;
#147=VECTOR('Line Direction',#146,1.) ;
#183=VECTOR('Line Direction',#182,1.) ;
#197=VECTOR('Line Direction',#196,1.) ;
#265=VECTOR('Line Direction',#264,1.) ;
#279=VECTOR('Line Direction',#278,1.) ;
#313=VECTOR('Line Direction',#312,1.) ;
#320=VECTOR('Line Direction',#319,1.) ;
#325=VECTOR('Line Direction',#324,1.) ;
#395=ADVANCED_BREP_SHAPE_REPRESENTATION('NONE',(#394),#45) ;
#48=SHAPE_REPRESENTATION(' ',(#47),#45) ;
#90=ADVANCED_FACE('Corps principal',(#89),#55,.T.) ;
#132=ADVANCED_FACE('Corps principal',(#113,#131),#95,.F.) ;
#163=ADVANCED_FACE('Corps principal',(#162),#137,.T.) ;
#175=ADVANCED_FACE('Corps principal',(#174),#137,.T.) ;
#206=ADVANCED_FACE('Corps principal',(#205),#180,.T.) ;
#223=ADVANCED_FACE('Corps principal',(#222),#211,.T.) ;
#233=ADVANCED_FACE('Corps principal',(#232),#228,.F.) ;
#257=ADVANCED_FACE('Corps principal',(#256),#238,.T.) ;
#288=ADVANCED_FACE('Corps principal',(#287),#262,.T.) ;
#305=ADVANCED_FACE('Corps principal',(#304),#293,.T.) ;
#350=ADVANCED_FACE('Corps principal',(#349),#310,.T.) ;
#371=ADVANCED_FACE('Corps principal',(#370),#310,.T.) ;
#382=ADVANCED_FACE('Corps principal',(#381),#376,.F.) ;
#393=ADVANCED_FACE('Corps principal',(#392),#387,.F.) ;
#4=APPLICATION_PROTOCOL_DEFINITION('international standard','config_control_design',1994,#1) ;
#32=APPROVAL_DATE_TIME(#13,#21) ;
#394=MANIFOLD_SOLID_BREP('Corps principal',#50) ;
#11=CALENDAR_DATE(2020,26,11) ;
#30=CC_DESIGN_APPROVAL(#21,(#16,#6,#14)) ;
#18=CC_DESIGN_DATE_AND_TIME_ASSIGNMENT(#13,#17,(#16)) ;
#29=CC_DESIGN_DATE_AND_TIME_ASSIGNMENT(#13,#28,(#14)) ;
#17=DATE_TIME_ROLE('classification_date') ;
#28=DATE_TIME_ROLE('creation_date') ;
#27=CC_DESIGN_PERSON_AND_ORGANIZATION_ASSIGNMENT(#25,#26,(#16)) ;
#33=CC_DESIGN_PERSON_AND_ORGANIZATION_ASSIGNMENT(#25,#34,(#6)) ;
#35=CC_DESIGN_PERSON_AND_ORGANIZATION_ASSIGNMENT(#25,#36,(#6,#14)) ;
#37=CC_DESIGN_PERSON_AND_ORGANIZATION_ASSIGNMENT(#25,#38,(#5)) ;
#26=PERSON_AND_ORGANIZATION_ROLE('classification_officer') ;
#34=PERSON_AND_ORGANIZATION_ROLE('design_supplier') ;
#36=PERSON_AND_ORGANIZATION_ROLE('creator') ;
#38=PERSON_AND_ORGANIZATION_ROLE('design_owner') ;
#39=CC_DESIGN_SECURITY_CLASSIFICATION(#16,(#6)) ;
#99=CIRCLE('generated circle',#98,2.) ;
#108=CIRCLE('generated circle',#107,2.) ;
#117=CIRCLE('generated circle',#116,1.) ;
#126=CIRCLE('generated circle',#125,1.) ;
#155=CIRCLE('generated circle',#154,1.) ;
#167=CIRCLE('generated circle',#166,1.) ;
#191=CIRCLE('generated circle',#190,0.9) ;
#215=CIRCLE('generated circle',#214,0.9) ;
#242=CIRCLE('generated circle',#241,1.9) ;
#251=CIRCLE('generated circle',#250,1.9) ;
#273=CIRCLE('generated circle',#272,2.) ;
#297=CIRCLE('generated circle',#296,2.) ;
#333=CIRCLE('generated circle',#332,2.) ;
#338=CIRCLE('generated circle',#337,2.) ;
#354=CIRCLE('generated circle',#353,2.) ;
#359=CIRCLE('generated circle',#358,2.) ;
#180=CONICAL_SURFACE('Cone',#179,0.,0.785398163397) ;
#211=CONICAL_SURFACE('Cone',#210,0.,0.785398163397) ;
#262=CONICAL_SURFACE('Cone',#261,0.,0.785398163397) ;
#293=CONICAL_SURFACE('Cone',#292,0.,0.785398163397) ;
#396=SHAPE_REPRESENTATION_RELATIONSHIP(' ',' ',#48,#395) ;
#137=CYLINDRICAL_SURFACE('generated cylinder',#136,1.) ;
#310=CYLINDRICAL_SURFACE('generated cylinder',#309,2.) ;
#3=DESIGN_CONTEXT(' ',#1,'design') ;
#64=EDGE_CURVE('',#61,#63,#59,.T.) ;
#71=EDGE_CURVE('',#63,#70,#68,.T.) ;
#78=EDGE_CURVE('',#77,#70,#75,.T.) ;
#83=EDGE_CURVE('',#61,#77,#82,.T.) ;
#104=EDGE_CURVE('',#101,#103,#99,.T.) ;
#109=EDGE_CURVE('',#103,#101,#108,.T.) ;
#122=EDGE_CURVE('',#119,#121,#117,.T.) ;
#127=EDGE_CURVE('',#121,#119,#126,.T.) ;
#144=EDGE_CURVE('',#143,#119,#141,.T.) ;
#151=EDGE_CURVE('',#150,#121,#148,.T.) ;
#156=EDGE_CURVE('',#150,#143,#155,.T.) ;
#168=EDGE_CURVE('',#143,#150,#167,.T.) ;
#187=EDGE_CURVE('',#150,#186,#184,.F.) ;
#194=EDGE_CURVE('',#186,#193,#191,.T.) ;
#199=EDGE_CURVE('',#143,#193,#198,.F.) ;
#216=EDGE_CURVE('',#193,#186,#215,.T.) ;
#247=EDGE_CURVE('',#244,#246,#242,.T.) ;
#252=EDGE_CURVE('',#246,#244,#251,.T.) ;
#269=EDGE_CURVE('',#246,#268,#266,.T.) ;
#276=EDGE_CURVE('',#268,#275,#273,.T.) ;
#281=EDGE_CURVE('',#244,#275,#280,.T.) ;
#298=EDGE_CURVE('',#275,#268,#297,.T.) ;
#317=EDGE_CURVE('',#101,#316,#314,.T.) ;
#322=EDGE_CURVE('',#103,#275,#321,.T.) ;
#329=EDGE_CURVE('',#328,#268,#326,.T.) ;
#334=EDGE_CURVE('',#328,#77,#333,.T.) ;
#339=EDGE_CURVE('',#70,#316,#338,.F.) ;
#355=EDGE_CURVE('',#316,#63,#354,.F.) ;
#360=EDGE_CURVE('',#61,#328,#359,.T.) ;
#84=EDGE_LOOP('',(#85,#86,#87,#88)) ;
#110=EDGE_LOOP('',(#111,#112)) ;
#128=EDGE_LOOP('',(#129,#130)) ;
#157=EDGE_LOOP('',(#158,#159,#160,#161)) ;
#169=EDGE_LOOP('',(#170,#171,#172,#173)) ;
#200=EDGE_LOOP('',(#201,#202,#203,#204)) ;
#217=EDGE_LOOP('',(#218,#219,#220,#221)) ;
#229=EDGE_LOOP('',(#230,#231)) ;
#253=EDGE_LOOP('',(#254,#255)) ;
#282=EDGE_LOOP('',(#283,#284,#285,#286)) ;
#299=EDGE_LOOP('',(#300,#301,#302,#303)) ;
#340=EDGE_LOOP('',(#341,#342,#343,#344,#345,#346,#347,#348)) ;
#361=EDGE_LOOP('',(#362,#363,#364,#365,#366,#367,#368,#369)) ;
#377=EDGE_LOOP('',(#378,#379,#380)) ;
#388=EDGE_LOOP('',(#389,#390,#391)) ;
#89=FACE_OUTER_BOUND('',#84,.T.) ;
#113=FACE_OUTER_BOUND('',#110,.T.) ;
#162=FACE_OUTER_BOUND('',#157,.T.) ;
#174=FACE_OUTER_BOUND('',#169,.T.) ;
#205=FACE_OUTER_BOUND('',#200,.T.) ;
#222=FACE_OUTER_BOUND('',#217,.T.) ;
#232=FACE_OUTER_BOUND('',#229,.T.) ;
#256=FACE_OUTER_BOUND('',#253,.T.) ;
#287=FACE_OUTER_BOUND('',#282,.T.) ;
#304=FACE_OUTER_BOUND('',#299,.T.) ;
#349=FACE_OUTER_BOUND('',#340,.T.) ;
#370=FACE_OUTER_BOUND('',#361,.T.) ;
#381=FACE_OUTER_BOUND('',#377,.T.) ;
#392=FACE_OUTER_BOUND('',#388,.T.) ;
#44=UNCERTAINTY_MEASURE_WITH_UNIT(LENGTH_MEASURE(0.005),#41,'distance_accuracy_value','CONFUSED CURVE UNCERTAINTY') ;
#59=LINE('Line',#56,#58) ;
#68=LINE('Line',#65,#67) ;
#75=LINE('Line',#72,#74) ;
#82=LINE('Line',#79,#81) ;
#141=LINE('Line',#138,#140) ;
#148=LINE('Line',#145,#147) ;
#184=LINE('Line',#181,#183) ;
#198=LINE('Line',#195,#197) ;
#266=LINE('Line',#263,#265) ;
#280=LINE('Line',#277,#279) ;
#314=LINE('Line',#311,#313) ;
#321=LINE('Line',#318,#320) ;
#326=LINE('Line',#323,#325) ;
#2=MECHANICAL_CONTEXT(' ',#1,'mechanical') ;
#24=PERSONAL_ADDRESS(' ',' ',' ',' ',' ',' ',' ',' ',' ',' ',' ',' ',(#22),' ') ;
#55=PLANE('',#54) ;
#95=PLANE('',#94) ;
#228=PLANE('',#227) ;
#238=PLANE('',#237) ;
#376=PLANE('',#375) ;
#387=PLANE('',#386) ;
#7=PRODUCT_CATEGORY('part',$) ;
#9=PRODUCT_CATEGORY_RELATIONSHIP(' ',' ',#7,#8) ;
#6=PRODUCT_DEFINITION_FORMATION_WITH_SPECIFIED_SOURCE('1',' ',#5,.MADE.) ;
#8=PRODUCT_RELATED_PRODUCT_CATEGORY('detail',$,(#5)) ;
#49=SHAPE_DEFINITION_REPRESENTATION(#40,#48) ;
#61=VERTEX_POINT('',#60) ;
#63=VERTEX_POINT('',#62) ;
#70=VERTEX_POINT('',#69) ;
#77=VERTEX_POINT('',#76) ;
#101=VERTEX_POINT('',#100) ;
#103=VERTEX_POINT('',#102) ;
#119=VERTEX_POINT('',#118) ;
#121=VERTEX_POINT('',#120) ;
#143=VERTEX_POINT('',#142) ;
#150=VERTEX_POINT('',#149) ;
#186=VERTEX_POINT('',#185) ;
#193=VERTEX_POINT('',#192) ;
#244=VERTEX_POINT('',#243) ;
#246=VERTEX_POINT('',#245) ;
#268=VERTEX_POINT('',#267) ;
#275=VERTEX_POINT('',#274) ;
#316=VERTEX_POINT('',#315) ;
#328=VERTEX_POINT('',#327) ;
#41=(LENGTH_UNIT()NAMED_UNIT(*)SI_UNIT(.MILLI.,.METRE.)) ;
#42=(NAMED_UNIT(*)PLANE_ANGLE_UNIT()SI_UNIT($,.RADIAN.)) ;
#43=(NAMED_UNIT(*)SI_UNIT($,.STERADIAN.)SOLID_ANGLE_UNIT()) ;
#45=(GEOMETRIC_REPRESENTATION_CONTEXT(3)GLOBAL_UNCERTAINTY_ASSIGNED_CONTEXT((#44))GLOBAL_UNIT_ASSIGNED_CONTEXT((#41,#42,#43))REPRESENTATION_CONTEXT(' ',' ')) ;
ENDSEC;
END-ISO-10303-21;
