ISO-10303-21;
HEADER;
/* Generated by software containing ST-Developer
 * from STEP Tools, Inc. (www.steptools.com) 
 */

FILE_DESCRIPTION(
/* description */ (''),
/* implementation_level */ '2;1');

FILE_NAME(
/* name */ 'C:/Users/flolm/Desktop/Cup-v1.5.step',
/* time_stamp */ '2020-11-18T11:44:47+01:00',
/* author */ (''),
/* organization */ (''),
/* preprocessor_version */ 'ST-DEVELOPER v18.1',
/* originating_system */ 'Autodesk Translation Framework v9.3.0.1241',
/* authorisation */ '');

FILE_SCHEMA (('AUTOMOTIVE_DESIGN { 1 0 10303 214 3 1 1 }'));
ENDSEC;

DATA;
#10=MECHANICAL_DESIGN_GEOMETRIC_PRESENTATION_REPRESENTATION('',(#13),#431);
#11=SHAPE_REPRESENTATION_RELATIONSHIP('SRR','None',#438,#12);
#12=ADVANCED_BREP_SHAPE_REPRESENTATION('',(#14),#430);
#13=STYLED_ITEM('',(#447),#14);
#14=MANIFOLD_SOLID_BREP('Body1',#233);
#15=CONICAL_SURFACE('',#274,3.34921393971002,0.17391341051971);
#16=CONICAL_SURFACE('',#278,3.30983425161864,0.203691546012993);
#17=CONICAL_SURFACE('',#282,3.06228029331542,0.283794061143146);
#18=SPHERICAL_SURFACE('',#261,24.4);
#19=FACE_BOUND('',#57,.T.);
#20=FACE_BOUND('',#61,.T.);
#21=FACE_BOUND('',#64,.T.);
#22=FACE_BOUND('',#65,.T.);
#23=FACE_BOUND('',#66,.T.);
#24=FACE_BOUND('',#69,.T.);
#25=FACE_BOUND('',#72,.T.);
#26=FACE_BOUND('',#75,.T.);
#27=PLANE('',#250);
#28=PLANE('',#254);
#29=PLANE('',#255);
#30=PLANE('',#264);
#31=PLANE('',#268);
#32=PLANE('',#272);
#33=PLANE('',#276);
#34=PLANE('',#280);
#35=FACE_OUTER_BOUND('',#52,.T.);
#36=FACE_OUTER_BOUND('',#53,.T.);
#37=FACE_OUTER_BOUND('',#54,.T.);
#38=FACE_OUTER_BOUND('',#55,.T.);
#39=FACE_OUTER_BOUND('',#56,.T.);
#40=FACE_OUTER_BOUND('',#58,.T.);
#41=FACE_OUTER_BOUND('',#59,.T.);
#42=FACE_OUTER_BOUND('',#60,.T.);
#43=FACE_OUTER_BOUND('',#62,.T.);
#44=FACE_OUTER_BOUND('',#63,.T.);
#45=FACE_OUTER_BOUND('',#67,.T.);
#46=FACE_OUTER_BOUND('',#68,.T.);
#47=FACE_OUTER_BOUND('',#70,.T.);
#48=FACE_OUTER_BOUND('',#71,.T.);
#49=FACE_OUTER_BOUND('',#73,.T.);
#50=FACE_OUTER_BOUND('',#74,.T.);
#51=FACE_OUTER_BOUND('',#76,.T.);
#52=EDGE_LOOP('',(#157,#158,#159,#160));
#53=EDGE_LOOP('',(#161));
#54=EDGE_LOOP('',(#162,#163,#164,#165));
#55=EDGE_LOOP('',(#166));
#56=EDGE_LOOP('',(#167));
#57=EDGE_LOOP('',(#168));
#58=EDGE_LOOP('',(#169,#170,#171,#172,#173));
#59=EDGE_LOOP('',(#174,#175,#176,#177,#178));
#60=EDGE_LOOP('',(#179));
#61=EDGE_LOOP('',(#180));
#62=EDGE_LOOP('',(#181,#182,#183,#184));
#63=EDGE_LOOP('',(#185));
#64=EDGE_LOOP('',(#186));
#65=EDGE_LOOP('',(#187));
#66=EDGE_LOOP('',(#188));
#67=EDGE_LOOP('',(#189,#190,#191,#192));
#68=EDGE_LOOP('',(#193));
#69=EDGE_LOOP('',(#194));
#70=EDGE_LOOP('',(#195,#196,#197,#198));
#71=EDGE_LOOP('',(#199));
#72=EDGE_LOOP('',(#200));
#73=EDGE_LOOP('',(#201,#202,#203,#204));
#74=EDGE_LOOP('',(#205));
#75=EDGE_LOOP('',(#206));
#76=EDGE_LOOP('',(#207,#208,#209,#210));
#77=LINE('',#370,#85);
#78=LINE('',#377,#86);
#79=LINE('',#387,#87);
#80=LINE('',#401,#88);
#81=LINE('',#408,#89);
#82=LINE('',#415,#90);
#83=LINE('',#422,#91);
#84=LINE('',#427,#92);
#85=VECTOR('',#289,1.5);
#86=VECTOR('',#298,1.5);
#87=VECTOR('',#311,2.25);
#88=VECTOR('',#330,25.);
#89=VECTOR('',#339,3.);
#90=VECTOR('',#348,3.34921393971002);
#91=VECTOR('',#357,3.30983425161864);
#92=VECTOR('',#364,3.06228029331542);
#93=CIRCLE('',#248,1.2645);
#94=CIRCLE('',#249,1.2645);
#95=CIRCLE('',#252,1.2645);
#96=CIRCLE('',#253,1.2645);
#97=CIRCLE('',#256,2.62478037154651);
#98=CIRCLE('',#257,2.25);
#99=CIRCLE('',#259,2.25);
#100=CIRCLE('',#260,2.25);
#101=CIRCLE('',#262,24.4);
#102=CIRCLE('',#263,24.4);
#103=CIRCLE('',#265,25.);
#104=CIRCLE('',#267,25.);
#105=CIRCLE('',#269,3.);
#106=CIRCLE('',#271,3.);
#107=CIRCLE('',#273,3.61274564943101);
#108=CIRCLE('',#275,3.08568222998904);
#109=CIRCLE('',#277,3.61966850323727);
#110=CIRCLE('',#279,3.);
#111=CIRCLE('',#281,3.49978021508433);
#112=VERTEX_POINT('',#367);
#113=VERTEX_POINT('',#369);
#114=VERTEX_POINT('',#374);
#115=VERTEX_POINT('',#376);
#116=VERTEX_POINT('',#381);
#117=VERTEX_POINT('',#383);
#118=VERTEX_POINT('',#386);
#119=VERTEX_POINT('',#388);
#120=VERTEX_POINT('',#392);
#121=VERTEX_POINT('',#396);
#122=VERTEX_POINT('',#399);
#123=VERTEX_POINT('',#403);
#124=VERTEX_POINT('',#406);
#125=VERTEX_POINT('',#410);
#126=VERTEX_POINT('',#413);
#127=VERTEX_POINT('',#417);
#128=VERTEX_POINT('',#420);
#129=VERTEX_POINT('',#424);
#130=EDGE_CURVE('',#112,#112,#93,.T.);
#131=EDGE_CURVE('',#112,#113,#77,.T.);
#132=EDGE_CURVE('',#113,#113,#94,.T.);
#133=EDGE_CURVE('',#114,#114,#95,.T.);
#134=EDGE_CURVE('',#114,#115,#78,.T.);
#135=EDGE_CURVE('',#115,#115,#96,.T.);
#136=EDGE_CURVE('',#116,#116,#97,.T.);
#137=EDGE_CURVE('',#117,#117,#98,.T.);
#138=EDGE_CURVE('',#117,#118,#79,.T.);
#139=EDGE_CURVE('',#119,#118,#99,.T.);
#140=EDGE_CURVE('',#118,#119,#100,.T.);
#141=EDGE_CURVE('',#120,#120,#101,.T.);
#142=EDGE_CURVE('',#120,#119,#102,.T.);
#143=EDGE_CURVE('',#121,#121,#103,.T.);
#144=EDGE_CURVE('',#122,#122,#104,.T.);
#145=EDGE_CURVE('',#122,#121,#80,.T.);
#146=EDGE_CURVE('',#123,#123,#105,.T.);
#147=EDGE_CURVE('',#124,#124,#106,.T.);
#148=EDGE_CURVE('',#124,#123,#81,.T.);
#149=EDGE_CURVE('',#125,#125,#107,.T.);
#150=EDGE_CURVE('',#126,#126,#108,.T.);
#151=EDGE_CURVE('',#126,#125,#82,.T.);
#152=EDGE_CURVE('',#127,#127,#109,.T.);
#153=EDGE_CURVE('',#128,#128,#110,.T.);
#154=EDGE_CURVE('',#128,#127,#83,.T.);
#155=EDGE_CURVE('',#129,#129,#111,.T.);
#156=EDGE_CURVE('',#116,#129,#84,.T.);
#157=ORIENTED_EDGE('',*,*,#130,.F.);
#158=ORIENTED_EDGE('',*,*,#131,.T.);
#159=ORIENTED_EDGE('',*,*,#132,.T.);
#160=ORIENTED_EDGE('',*,*,#131,.F.);
#161=ORIENTED_EDGE('',*,*,#132,.F.);
#162=ORIENTED_EDGE('',*,*,#133,.F.);
#163=ORIENTED_EDGE('',*,*,#134,.T.);
#164=ORIENTED_EDGE('',*,*,#135,.T.);
#165=ORIENTED_EDGE('',*,*,#134,.F.);
#166=ORIENTED_EDGE('',*,*,#135,.F.);
#167=ORIENTED_EDGE('',*,*,#136,.T.);
#168=ORIENTED_EDGE('',*,*,#137,.F.);
#169=ORIENTED_EDGE('',*,*,#137,.T.);
#170=ORIENTED_EDGE('',*,*,#138,.T.);
#171=ORIENTED_EDGE('',*,*,#139,.F.);
#172=ORIENTED_EDGE('',*,*,#140,.F.);
#173=ORIENTED_EDGE('',*,*,#138,.F.);
#174=ORIENTED_EDGE('',*,*,#141,.F.);
#175=ORIENTED_EDGE('',*,*,#142,.T.);
#176=ORIENTED_EDGE('',*,*,#139,.T.);
#177=ORIENTED_EDGE('',*,*,#140,.T.);
#178=ORIENTED_EDGE('',*,*,#142,.F.);
#179=ORIENTED_EDGE('',*,*,#143,.F.);
#180=ORIENTED_EDGE('',*,*,#141,.T.);
#181=ORIENTED_EDGE('',*,*,#144,.F.);
#182=ORIENTED_EDGE('',*,*,#145,.T.);
#183=ORIENTED_EDGE('',*,*,#143,.T.);
#184=ORIENTED_EDGE('',*,*,#145,.F.);
#185=ORIENTED_EDGE('',*,*,#144,.T.);
#186=ORIENTED_EDGE('',*,*,#130,.T.);
#187=ORIENTED_EDGE('',*,*,#133,.T.);
#188=ORIENTED_EDGE('',*,*,#146,.F.);
#189=ORIENTED_EDGE('',*,*,#147,.F.);
#190=ORIENTED_EDGE('',*,*,#148,.T.);
#191=ORIENTED_EDGE('',*,*,#146,.T.);
#192=ORIENTED_EDGE('',*,*,#148,.F.);
#193=ORIENTED_EDGE('',*,*,#149,.F.);
#194=ORIENTED_EDGE('',*,*,#147,.T.);
#195=ORIENTED_EDGE('',*,*,#150,.F.);
#196=ORIENTED_EDGE('',*,*,#151,.T.);
#197=ORIENTED_EDGE('',*,*,#149,.T.);
#198=ORIENTED_EDGE('',*,*,#151,.F.);
#199=ORIENTED_EDGE('',*,*,#152,.F.);
#200=ORIENTED_EDGE('',*,*,#150,.T.);
#201=ORIENTED_EDGE('',*,*,#153,.F.);
#202=ORIENTED_EDGE('',*,*,#154,.T.);
#203=ORIENTED_EDGE('',*,*,#152,.T.);
#204=ORIENTED_EDGE('',*,*,#154,.F.);
#205=ORIENTED_EDGE('',*,*,#155,.F.);
#206=ORIENTED_EDGE('',*,*,#153,.T.);
#207=ORIENTED_EDGE('',*,*,#136,.F.);
#208=ORIENTED_EDGE('',*,*,#156,.T.);
#209=ORIENTED_EDGE('',*,*,#155,.T.);
#210=ORIENTED_EDGE('',*,*,#156,.F.);
#211=CYLINDRICAL_SURFACE('',#247,1.2645);
#212=CYLINDRICAL_SURFACE('',#251,1.2645);
#213=CYLINDRICAL_SURFACE('',#258,2.25);
#214=CYLINDRICAL_SURFACE('',#266,25.);
#215=CYLINDRICAL_SURFACE('',#270,3.);
#216=ADVANCED_FACE('',(#35),#211,.F.);
#217=ADVANCED_FACE('',(#36),#27,.T.);
#218=ADVANCED_FACE('',(#37),#212,.F.);
#219=ADVANCED_FACE('',(#38),#28,.T.);
#220=ADVANCED_FACE('',(#39,#19),#29,.T.);
#221=ADVANCED_FACE('',(#40),#213,.F.);
#222=ADVANCED_FACE('',(#41),#18,.F.);
#223=ADVANCED_FACE('',(#42,#20),#30,.T.);
#224=ADVANCED_FACE('',(#43),#214,.T.);
#225=ADVANCED_FACE('',(#44,#21,#22,#23),#31,.T.);
#226=ADVANCED_FACE('',(#45),#215,.T.);
#227=ADVANCED_FACE('',(#46,#24),#32,.T.);
#228=ADVANCED_FACE('',(#47),#15,.T.);
#229=ADVANCED_FACE('',(#48,#25),#33,.T.);
#230=ADVANCED_FACE('',(#49),#16,.T.);
#231=ADVANCED_FACE('',(#50,#26),#34,.T.);
#232=ADVANCED_FACE('',(#51),#17,.T.);
#233=CLOSED_SHELL('',(#216,#217,#218,#219,#220,#221,#222,#223,#224,#225,
#226,#227,#228,#229,#230,#231,#232));
#234=DERIVED_UNIT_ELEMENT(#236,1.);
#235=DERIVED_UNIT_ELEMENT(#433,3.);
#236=(
MASS_UNIT()
NAMED_UNIT(*)
SI_UNIT(.KILO.,.GRAM.)
);
#237=DERIVED_UNIT((#234,#235));
#238=MEASURE_REPRESENTATION_ITEM('density measure',
POSITIVE_RATIO_MEASURE(7850.),#237);
#239=PROPERTY_DEFINITION_REPRESENTATION(#244,#241);
#240=PROPERTY_DEFINITION_REPRESENTATION(#245,#242);
#241=REPRESENTATION('material name',(#243),#430);
#242=REPRESENTATION('density',(#238),#430);
#243=DESCRIPTIVE_REPRESENTATION_ITEM('Steel','Steel');
#244=PROPERTY_DEFINITION('material property','material name',#440);
#245=PROPERTY_DEFINITION('material property','density of part',#440);
#246=AXIS2_PLACEMENT_3D('placement',#365,#283,#284);
#247=AXIS2_PLACEMENT_3D('',#366,#285,#286);
#248=AXIS2_PLACEMENT_3D('',#368,#287,#288);
#249=AXIS2_PLACEMENT_3D('',#371,#290,#291);
#250=AXIS2_PLACEMENT_3D('',#372,#292,#293);
#251=AXIS2_PLACEMENT_3D('',#373,#294,#295);
#252=AXIS2_PLACEMENT_3D('',#375,#296,#297);
#253=AXIS2_PLACEMENT_3D('',#378,#299,#300);
#254=AXIS2_PLACEMENT_3D('',#379,#301,#302);
#255=AXIS2_PLACEMENT_3D('',#380,#303,#304);
#256=AXIS2_PLACEMENT_3D('',#382,#305,#306);
#257=AXIS2_PLACEMENT_3D('',#384,#307,#308);
#258=AXIS2_PLACEMENT_3D('',#385,#309,#310);
#259=AXIS2_PLACEMENT_3D('',#389,#312,#313);
#260=AXIS2_PLACEMENT_3D('',#390,#314,#315);
#261=AXIS2_PLACEMENT_3D('',#391,#316,#317);
#262=AXIS2_PLACEMENT_3D('',#393,#318,#319);
#263=AXIS2_PLACEMENT_3D('',#394,#320,#321);
#264=AXIS2_PLACEMENT_3D('',#395,#322,#323);
#265=AXIS2_PLACEMENT_3D('',#397,#324,#325);
#266=AXIS2_PLACEMENT_3D('',#398,#326,#327);
#267=AXIS2_PLACEMENT_3D('',#400,#328,#329);
#268=AXIS2_PLACEMENT_3D('',#402,#331,#332);
#269=AXIS2_PLACEMENT_3D('',#404,#333,#334);
#270=AXIS2_PLACEMENT_3D('',#405,#335,#336);
#271=AXIS2_PLACEMENT_3D('',#407,#337,#338);
#272=AXIS2_PLACEMENT_3D('',#409,#340,#341);
#273=AXIS2_PLACEMENT_3D('',#411,#342,#343);
#274=AXIS2_PLACEMENT_3D('',#412,#344,#345);
#275=AXIS2_PLACEMENT_3D('',#414,#346,#347);
#276=AXIS2_PLACEMENT_3D('',#416,#349,#350);
#277=AXIS2_PLACEMENT_3D('',#418,#351,#352);
#278=AXIS2_PLACEMENT_3D('',#419,#353,#354);
#279=AXIS2_PLACEMENT_3D('',#421,#355,#356);
#280=AXIS2_PLACEMENT_3D('',#423,#358,#359);
#281=AXIS2_PLACEMENT_3D('',#425,#360,#361);
#282=AXIS2_PLACEMENT_3D('',#426,#362,#363);
#283=DIRECTION('axis',(0.,0.,1.));
#284=DIRECTION('refdir',(1.,0.,0.));
#285=DIRECTION('center_axis',(0.,0.,1.));
#286=DIRECTION('ref_axis',(1.,0.,0.));
#287=DIRECTION('center_axis',(0.,0.,1.));
#288=DIRECTION('ref_axis',(1.,0.,0.));
#289=DIRECTION('',(0.,0.,1.));
#290=DIRECTION('center_axis',(0.,0.,1.));
#291=DIRECTION('ref_axis',(1.,0.,0.));
#292=DIRECTION('center_axis',(0.,0.,-1.));
#293=DIRECTION('ref_axis',(1.,0.,0.));
#294=DIRECTION('center_axis',(0.,0.,1.));
#295=DIRECTION('ref_axis',(1.,0.,0.));
#296=DIRECTION('center_axis',(0.,0.,1.));
#297=DIRECTION('ref_axis',(1.,0.,0.));
#298=DIRECTION('',(0.,0.,1.));
#299=DIRECTION('center_axis',(0.,0.,1.));
#300=DIRECTION('ref_axis',(1.,0.,0.));
#301=DIRECTION('center_axis',(0.,0.,-1.));
#302=DIRECTION('ref_axis',(1.,0.,0.));
#303=DIRECTION('center_axis',(0.,0.,-1.));
#304=DIRECTION('ref_axis',(-1.,0.,0.));
#305=DIRECTION('center_axis',(0.,0.,-1.));
#306=DIRECTION('ref_axis',(1.,0.,0.));
#307=DIRECTION('center_axis',(0.,0.,-1.));
#308=DIRECTION('ref_axis',(1.,0.,0.));
#309=DIRECTION('center_axis',(0.,0.,-1.));
#310=DIRECTION('ref_axis',(0.,1.,0.));
#311=DIRECTION('',(0.,0.,1.));
#312=DIRECTION('center_axis',(0.,0.,-1.));
#313=DIRECTION('ref_axis',(1.,0.,0.));
#314=DIRECTION('center_axis',(0.,0.,-1.));
#315=DIRECTION('ref_axis',(1.,0.,0.));
#316=DIRECTION('center_axis',(6.12323399573677E-17,0.,1.));
#317=DIRECTION('ref_axis',(1.,0.,0.));
#318=DIRECTION('center_axis',(0.,0.,-1.));
#319=DIRECTION('ref_axis',(1.,0.,0.));
#320=DIRECTION('center_axis',(1.22464679914735E-16,-1.,0.));
#321=DIRECTION('ref_axis',(-1.,-1.22464679914735E-16,0.));
#322=DIRECTION('center_axis',(0.,0.,1.));
#323=DIRECTION('ref_axis',(1.,0.,0.));
#324=DIRECTION('center_axis',(0.,0.,-1.));
#325=DIRECTION('ref_axis',(1.,0.,0.));
#326=DIRECTION('center_axis',(0.,0.,-1.));
#327=DIRECTION('ref_axis',(0.,1.,0.));
#328=DIRECTION('center_axis',(0.,0.,-1.));
#329=DIRECTION('ref_axis',(1.,0.,0.));
#330=DIRECTION('',(0.,0.,1.));
#331=DIRECTION('center_axis',(0.,0.,-1.));
#332=DIRECTION('ref_axis',(-1.,0.,0.));
#333=DIRECTION('center_axis',(0.,0.,-1.));
#334=DIRECTION('ref_axis',(1.,0.,0.));
#335=DIRECTION('center_axis',(0.,0.,-1.));
#336=DIRECTION('ref_axis',(0.,1.,0.));
#337=DIRECTION('center_axis',(0.,0.,-1.));
#338=DIRECTION('ref_axis',(1.,0.,0.));
#339=DIRECTION('',(0.,0.,1.));
#340=DIRECTION('center_axis',(0.,0.,1.));
#341=DIRECTION('ref_axis',(1.,0.,0.));
#342=DIRECTION('center_axis',(0.,0.,-1.));
#343=DIRECTION('ref_axis',(1.,0.,0.));
#344=DIRECTION('center_axis',(0.,0.,1.));
#345=DIRECTION('ref_axis',(0.,1.,0.));
#346=DIRECTION('center_axis',(0.,0.,-1.));
#347=DIRECTION('ref_axis',(1.,0.,0.));
#348=DIRECTION('',(-2.11910483682251E-17,-0.173038041523312,0.984915141616666));
#349=DIRECTION('center_axis',(0.,0.,1.));
#350=DIRECTION('ref_axis',(1.,0.,0.));
#351=DIRECTION('center_axis',(0.,0.,-1.));
#352=DIRECTION('ref_axis',(1.,0.,0.));
#353=DIRECTION('center_axis',(0.,0.,1.));
#354=DIRECTION('ref_axis',(0.,1.,0.));
#355=DIRECTION('center_axis',(0.,0.,-1.));
#356=DIRECTION('ref_axis',(1.,0.,0.));
#357=DIRECTION('',(-2.47728816396632E-17,-0.202285929762859,0.979326504604045));
#358=DIRECTION('center_axis',(0.,0.,1.));
#359=DIRECTION('ref_axis',(1.,0.,0.));
#360=DIRECTION('center_axis',(0.,0.,-1.));
#361=DIRECTION('ref_axis',(1.,0.,0.));
#362=DIRECTION('center_axis',(0.,0.,1.));
#363=DIRECTION('ref_axis',(0.,1.,0.));
#364=DIRECTION('',(-3.42901047252902E-17,-0.279999953857425,0.96000001345825));
#365=CARTESIAN_POINT('',(0.,0.,0.));
#366=CARTESIAN_POINT('Origin',(-18.5,0.,0.));
#367=CARTESIAN_POINT('',(-19.7645,-1.54856587752183E-16,0.));
#368=CARTESIAN_POINT('Origin',(-18.5,0.,0.));
#369=CARTESIAN_POINT('',(-19.7645,-1.54856587752183E-16,4.));
#370=CARTESIAN_POINT('',(-19.7645,-1.54856587752183E-16,0.));
#371=CARTESIAN_POINT('Origin',(-18.5,0.,4.));
#372=CARTESIAN_POINT('Origin',(-18.5,0.,4.));
#373=CARTESIAN_POINT('Origin',(18.5,0.,0.));
#374=CARTESIAN_POINT('',(17.2355,-1.54856587752183E-16,0.));
#375=CARTESIAN_POINT('Origin',(18.5,0.,0.));
#376=CARTESIAN_POINT('',(17.2355,-1.54856587752183E-16,4.));
#377=CARTESIAN_POINT('',(17.2355,-1.54856587752183E-16,0.));
#378=CARTESIAN_POINT('Origin',(18.5,0.,4.));
#379=CARTESIAN_POINT('Origin',(18.5,0.,4.));
#380=CARTESIAN_POINT('Origin',(0.,2.25,-15.0023874435388));
#381=CARTESIAN_POINT('',(-3.21442888047924E-16,-2.62478037154651,-15.0023874435388));
#382=CARTESIAN_POINT('Origin',(0.,0.,-15.0023874435388));
#383=CARTESIAN_POINT('',(-2.75545529808155E-16,-2.25,-15.0023874435388));
#384=CARTESIAN_POINT('Origin',(0.,0.,-15.0023874435388));
#385=CARTESIAN_POINT('Origin',(0.,0.,-7.14921310766107));
#386=CARTESIAN_POINT('',(-2.75545529808155E-16,-2.25,0.703961228216645));
#387=CARTESIAN_POINT('',(-2.75545529808155E-16,-2.25,-7.14921310766107));
#388=CARTESIAN_POINT('',(-2.25,-2.75545529808155E-16,0.703961228216645));
#389=CARTESIAN_POINT('Origin',(0.,0.,0.703961228216645));
#390=CARTESIAN_POINT('Origin',(0.,0.,0.703961228216645));
#391=CARTESIAN_POINT('Origin',(0.,0.,25.));
#392=CARTESIAN_POINT('',(-24.4,-2.98813818991954E-15,25.));
#393=CARTESIAN_POINT('Origin',(0.,0.,25.));
#394=CARTESIAN_POINT('Origin',(0.,0.,25.));
#395=CARTESIAN_POINT('Origin',(0.,25.,25.));
#396=CARTESIAN_POINT('',(-3.06161699786838E-15,-25.,25.));
#397=CARTESIAN_POINT('Origin',(0.,0.,25.));
#398=CARTESIAN_POINT('Origin',(0.,0.,12.5));
#399=CARTESIAN_POINT('',(-3.06161699786838E-15,-25.,0.));
#400=CARTESIAN_POINT('Origin',(0.,0.,0.));
#401=CARTESIAN_POINT('',(-3.06161699786838E-15,-25.,12.5));
#402=CARTESIAN_POINT('Origin',(0.,3.,0.));
#403=CARTESIAN_POINT('',(-3.67394039744206E-16,-3.,0.));
#404=CARTESIAN_POINT('Origin',(0.,0.,0.));
#405=CARTESIAN_POINT('Origin',(0.,0.,-3.00119771560011));
#406=CARTESIAN_POINT('',(-3.67394039744206E-16,-3.,-6.00239543120022));
#407=CARTESIAN_POINT('Origin',(0.,0.,-6.00239543120022));
#408=CARTESIAN_POINT('',(-3.67394039744206E-16,-3.,-3.00119771560011));
#409=CARTESIAN_POINT('Origin',(0.,3.61274564943101,-6.00239543120022));
#410=CARTESIAN_POINT('',(-4.42433739570921E-16,-3.61274564943101,-6.00239543120022));
#411=CARTESIAN_POINT('Origin',(0.,0.,-6.00239543120022));
#412=CARTESIAN_POINT('Origin',(0.,0.,-7.5023914373695));
#413=CARTESIAN_POINT('',(-3.77887086614195E-16,-3.08568222998904,-9.00238744353878));
#414=CARTESIAN_POINT('Origin',(0.,0.,-9.00238744353878));
#415=CARTESIAN_POINT('',(-4.10160413092558E-16,-3.34921393971002,-7.5023914373695));
#416=CARTESIAN_POINT('Origin',(0.,3.61966850323727,-9.00238744353878));
#417=CARTESIAN_POINT('',(-4.43281544646402E-16,-3.61966850323727,-9.00238744353878));
#418=CARTESIAN_POINT('Origin',(0.,0.,-9.00238744353878));
#419=CARTESIAN_POINT('Origin',(0.,0.,-10.5023874435388));
#420=CARTESIAN_POINT('',(-3.67394039744206E-16,-3.,-12.0023874435388));
#421=CARTESIAN_POINT('Origin',(0.,0.,-12.0023874435388));
#422=CARTESIAN_POINT('',(-4.05337792195304E-16,-3.30983425161864,-10.5023874435388));
#423=CARTESIAN_POINT('Origin',(0.,3.49978021508433,-12.0023874435388));
#424=CARTESIAN_POINT('',(-4.28599463812226E-16,-3.49978021508433,-12.0023874435388));
#425=CARTESIAN_POINT('Origin',(0.,0.,-12.0023874435388));
#426=CARTESIAN_POINT('Origin',(0.,0.,-13.5023874435388));
#427=CARTESIAN_POINT('',(-3.75021175930075E-16,-3.06228029331542,-13.5023874435388));
#428=UNCERTAINTY_MEASURE_WITH_UNIT(LENGTH_MEASURE(0.01),#432,
'DISTANCE_ACCURACY_VALUE',
'Maximum model space distance between geometric entities at asserted c
onnectivities');
#429=UNCERTAINTY_MEASURE_WITH_UNIT(LENGTH_MEASURE(0.01),#432,
'DISTANCE_ACCURACY_VALUE',
'Maximum model space distance between geometric entities at asserted c
onnectivities');
#430=(
GEOMETRIC_REPRESENTATION_CONTEXT(3)
GLOBAL_UNCERTAINTY_ASSIGNED_CONTEXT((#428))
GLOBAL_UNIT_ASSIGNED_CONTEXT((#432,#434,#435))
REPRESENTATION_CONTEXT('','3D')
);
#431=(
GEOMETRIC_REPRESENTATION_CONTEXT(3)
GLOBAL_UNCERTAINTY_ASSIGNED_CONTEXT((#429))
GLOBAL_UNIT_ASSIGNED_CONTEXT((#432,#434,#435))
REPRESENTATION_CONTEXT('','3D')
);
#432=(
LENGTH_UNIT()
NAMED_UNIT(*)
SI_UNIT(.MILLI.,.METRE.)
);
#433=(
LENGTH_UNIT()
NAMED_UNIT(*)
SI_UNIT($,.METRE.)
);
#434=(
NAMED_UNIT(*)
PLANE_ANGLE_UNIT()
SI_UNIT($,.RADIAN.)
);
#435=(
NAMED_UNIT(*)
SI_UNIT($,.STERADIAN.)
SOLID_ANGLE_UNIT()
);
#436=SHAPE_DEFINITION_REPRESENTATION(#437,#438);
#437=PRODUCT_DEFINITION_SHAPE('',$,#440);
#438=SHAPE_REPRESENTATION('',(#246),#430);
#439=PRODUCT_DEFINITION_CONTEXT('part definition',#444,'design');
#440=PRODUCT_DEFINITION('Cup','Cup v2',#441,#439);
#441=PRODUCT_DEFINITION_FORMATION('',$,#446);
#442=PRODUCT_RELATED_PRODUCT_CATEGORY('Cup v2','Cup v2',(#446));
#443=APPLICATION_PROTOCOL_DEFINITION('international standard',
'automotive_design',2009,#444);
#444=APPLICATION_CONTEXT(
'Core Data for Automotive Mechanical Design Process');
#445=PRODUCT_CONTEXT('part definition',#444,'mechanical');
#446=PRODUCT('Cup','Cup v2',$,(#445));
#447=PRESENTATION_STYLE_ASSIGNMENT((#448));
#448=SURFACE_STYLE_USAGE(.BOTH.,#449);
#449=SURFACE_SIDE_STYLE('',(#450));
#450=SURFACE_STYLE_FILL_AREA(#451);
#451=FILL_AREA_STYLE('Steel - Satin',(#452));
#452=FILL_AREA_STYLE_COLOUR('Steel - Satin',#453);
#453=COLOUR_RGB('Steel - Satin',0.627450980392157,0.627450980392157,0.627450980392157);
ENDSEC;
END-ISO-10303-21;
