ISO-10303-21;
HEADER;
/* Generated by software containing ST-Developer
 * from STEP Tools, Inc. (www.steptools.com) 
 */
/* OPTION: strings as raw bytes, not using required /X/ escapes */

FILE_DESCRIPTION(
/* description */ ('Unknown'),
/* implementation_level */ '2;1');

FILE_NAME(
/* name */ 'palier',
/* time_stamp */ '2020-11-16T18:59:20+01:00',
/* author */ ('Unknown'),
/* organization */ ('Unknown'),
/* preprocessor_version */ 'ST-DEVELOPER v16.7',
/* originating_system */ 'DEX',
/* authorisation */ $);

FILE_SCHEMA (('AUTOMOTIVE_DESIGN {1 0 10303 214 3 1 1}'));
ENDSEC;

DATA;
#10=PROPERTY_DEFINITION_REPRESENTATION(#14,#12);
#11=PROPERTY_DEFINITION_REPRESENTATION(#15,#13);
#12=REPRESENTATION('',(#16),#537);
#13=REPRESENTATION('',(#17),#537);
#14=PROPERTY_DEFINITION('pmi validation property','',#542);
#15=PROPERTY_DEFINITION('pmi validation property','',#542);
#16=VALUE_REPRESENTATION_ITEM('number of annotations',COUNT_MEASURE(0.));
#17=VALUE_REPRESENTATION_ITEM('number of views',COUNT_MEASURE(0.));
#18=SHAPE_REPRESENTATION_RELATIONSHIP('','',#306,#19);
#19=ADVANCED_BREP_SHAPE_REPRESENTATION('',(#304),#537);
#20=CYLINDRICAL_SURFACE('',#315,6.1);
#21=CYLINDRICAL_SURFACE('',#319,8.1);
#22=CYLINDRICAL_SURFACE('',#323,6.1);
#23=CYLINDRICAL_SURFACE('',#327,8.1);
#24=CYLINDRICAL_SURFACE('',#331,6.1);
#25=CYLINDRICAL_SURFACE('',#335,12.);
#26=CYLINDRICAL_SURFACE('',#340,11.1);
#27=CYLINDRICAL_SURFACE('',#344,12.);
#28=CYLINDRICAL_SURFACE('',#348,14.);
#29=CYLINDRICAL_SURFACE('',#352,17.);
#30=CYLINDRICAL_SURFACE('',#356,20.);
#31=PLANE('',#311);
#32=PLANE('',#317);
#33=PLANE('',#321);
#34=PLANE('',#325);
#35=PLANE('',#329);
#36=PLANE('',#333);
#37=PLANE('',#338);
#38=PLANE('',#342);
#39=PLANE('',#346);
#40=PLANE('',#350);
#41=PLANE('',#354);
#42=ORIENTED_EDGE('',*,*,#92,.T.);
#43=ORIENTED_EDGE('',*,*,#93,.F.);
#44=ORIENTED_EDGE('',*,*,#94,.T.);
#45=ORIENTED_EDGE('',*,*,#92,.F.);
#46=ORIENTED_EDGE('',*,*,#95,.T.);
#47=ORIENTED_EDGE('',*,*,#94,.F.);
#48=ORIENTED_EDGE('',*,*,#96,.T.);
#49=ORIENTED_EDGE('',*,*,#95,.F.);
#50=ORIENTED_EDGE('',*,*,#97,.T.);
#51=ORIENTED_EDGE('',*,*,#96,.F.);
#52=ORIENTED_EDGE('',*,*,#98,.T.);
#53=ORIENTED_EDGE('',*,*,#97,.F.);
#54=ORIENTED_EDGE('',*,*,#99,.T.);
#55=ORIENTED_EDGE('',*,*,#98,.F.);
#56=ORIENTED_EDGE('',*,*,#100,.T.);
#57=ORIENTED_EDGE('',*,*,#99,.F.);
#58=ORIENTED_EDGE('',*,*,#101,.T.);
#59=ORIENTED_EDGE('',*,*,#100,.F.);
#60=ORIENTED_EDGE('',*,*,#102,.T.);
#61=ORIENTED_EDGE('',*,*,#101,.F.);
#62=ORIENTED_EDGE('',*,*,#103,.T.);
#63=ORIENTED_EDGE('',*,*,#102,.F.);
#64=ORIENTED_EDGE('',*,*,#104,.T.);
#65=ORIENTED_EDGE('',*,*,#103,.F.);
#66=ORIENTED_EDGE('',*,*,#105,.T.);
#67=ORIENTED_EDGE('',*,*,#104,.F.);
#68=ORIENTED_EDGE('',*,*,#106,.T.);
#69=ORIENTED_EDGE('',*,*,#107,.T.);
#70=ORIENTED_EDGE('',*,*,#108,.T.);
#71=ORIENTED_EDGE('',*,*,#107,.F.);
#72=ORIENTED_EDGE('',*,*,#109,.T.);
#73=ORIENTED_EDGE('',*,*,#108,.F.);
#74=ORIENTED_EDGE('',*,*,#110,.T.);
#75=ORIENTED_EDGE('',*,*,#109,.F.);
#76=ORIENTED_EDGE('',*,*,#111,.T.);
#77=ORIENTED_EDGE('',*,*,#110,.F.);
#78=ORIENTED_EDGE('',*,*,#112,.T.);
#79=ORIENTED_EDGE('',*,*,#111,.F.);
#80=ORIENTED_EDGE('',*,*,#113,.T.);
#81=ORIENTED_EDGE('',*,*,#112,.F.);
#82=ORIENTED_EDGE('',*,*,#114,.T.);
#83=ORIENTED_EDGE('',*,*,#113,.F.);
#84=ORIENTED_EDGE('',*,*,#115,.T.);
#85=ORIENTED_EDGE('',*,*,#114,.F.);
#86=ORIENTED_EDGE('',*,*,#116,.T.);
#87=ORIENTED_EDGE('',*,*,#115,.F.);
#88=ORIENTED_EDGE('',*,*,#93,.T.);
#89=ORIENTED_EDGE('',*,*,#116,.F.);
#90=ORIENTED_EDGE('',*,*,#106,.F.);
#91=ORIENTED_EDGE('',*,*,#105,.F.);
#92=EDGE_CURVE('',#117,#117,#142,.T.);
#93=EDGE_CURVE('',#118,#118,#143,.T.);
#94=EDGE_CURVE('',#119,#119,#144,.T.);
#95=EDGE_CURVE('',#120,#120,#145,.T.);
#96=EDGE_CURVE('',#121,#121,#146,.T.);
#97=EDGE_CURVE('',#122,#122,#147,.T.);
#98=EDGE_CURVE('',#123,#123,#148,.T.);
#99=EDGE_CURVE('',#124,#124,#149,.T.);
#100=EDGE_CURVE('',#125,#125,#150,.T.);
#101=EDGE_CURVE('',#126,#126,#151,.T.);
#102=EDGE_CURVE('',#127,#127,#152,.T.);
#103=EDGE_CURVE('',#128,#128,#153,.T.);
#104=EDGE_CURVE('',#129,#129,#154,.T.);
#105=EDGE_CURVE('',#130,#130,#155,.T.);
#106=EDGE_CURVE('',#131,#131,#156,.F.);
#107=EDGE_CURVE('',#132,#132,#157,.T.);
#108=EDGE_CURVE('',#133,#133,#158,.T.);
#109=EDGE_CURVE('',#134,#134,#159,.T.);
#110=EDGE_CURVE('',#135,#135,#160,.T.);
#111=EDGE_CURVE('',#136,#136,#161,.T.);
#112=EDGE_CURVE('',#137,#137,#162,.T.);
#113=EDGE_CURVE('',#138,#138,#163,.T.);
#114=EDGE_CURVE('',#139,#139,#164,.T.);
#115=EDGE_CURVE('',#140,#140,#165,.T.);
#116=EDGE_CURVE('',#141,#141,#166,.T.);
#117=VERTEX_POINT('',#463);
#118=VERTEX_POINT('',#465);
#119=VERTEX_POINT('',#468);
#120=VERTEX_POINT('',#471);
#121=VERTEX_POINT('',#474);
#122=VERTEX_POINT('',#477);
#123=VERTEX_POINT('',#480);
#124=VERTEX_POINT('',#483);
#125=VERTEX_POINT('',#486);
#126=VERTEX_POINT('',#489);
#127=VERTEX_POINT('',#492);
#128=VERTEX_POINT('',#495);
#129=VERTEX_POINT('',#498);
#130=VERTEX_POINT('',#501);
#131=VERTEX_POINT('',#504);
#132=VERTEX_POINT('',#506);
#133=VERTEX_POINT('',#509);
#134=VERTEX_POINT('',#512);
#135=VERTEX_POINT('',#515);
#136=VERTEX_POINT('',#518);
#137=VERTEX_POINT('',#521);
#138=VERTEX_POINT('',#524);
#139=VERTEX_POINT('',#527);
#140=VERTEX_POINT('',#530);
#141=VERTEX_POINT('',#533);
#142=CIRCLE('',#309,19.5);
#143=CIRCLE('',#310,20.);
#144=CIRCLE('',#312,6.6);
#145=CIRCLE('',#314,6.1);
#146=CIRCLE('',#316,6.1);
#147=CIRCLE('',#318,8.1);
#148=CIRCLE('',#320,8.1);
#149=CIRCLE('',#322,6.1);
#150=CIRCLE('',#324,6.1);
#151=CIRCLE('',#326,8.1);
#152=CIRCLE('',#328,8.1);
#153=CIRCLE('',#330,6.1);
#154=CIRCLE('',#332,6.1);
#155=CIRCLE('',#334,11.);
#156=CIRCLE('',#336,12.);
#157=CIRCLE('',#337,12.);
#158=CIRCLE('',#339,11.1);
#159=CIRCLE('',#341,11.1);
#160=CIRCLE('',#343,12.);
#161=CIRCLE('',#345,12.);
#162=CIRCLE('',#347,14.);
#163=CIRCLE('',#349,14.);
#164=CIRCLE('',#351,17.);
#165=CIRCLE('',#353,17.);
#166=CIRCLE('',#355,20.);
#167=EDGE_LOOP('',(#42));
#168=EDGE_LOOP('',(#43));
#169=EDGE_LOOP('',(#44));
#170=EDGE_LOOP('',(#45));
#171=EDGE_LOOP('',(#46));
#172=EDGE_LOOP('',(#47));
#173=EDGE_LOOP('',(#48));
#174=EDGE_LOOP('',(#49));
#175=EDGE_LOOP('',(#50));
#176=EDGE_LOOP('',(#51));
#177=EDGE_LOOP('',(#52));
#178=EDGE_LOOP('',(#53));
#179=EDGE_LOOP('',(#54));
#180=EDGE_LOOP('',(#55));
#181=EDGE_LOOP('',(#56));
#182=EDGE_LOOP('',(#57));
#183=EDGE_LOOP('',(#58));
#184=EDGE_LOOP('',(#59));
#185=EDGE_LOOP('',(#60));
#186=EDGE_LOOP('',(#61));
#187=EDGE_LOOP('',(#62));
#188=EDGE_LOOP('',(#63));
#189=EDGE_LOOP('',(#64));
#190=EDGE_LOOP('',(#65));
#191=EDGE_LOOP('',(#66));
#192=EDGE_LOOP('',(#67));
#193=EDGE_LOOP('',(#68));
#194=EDGE_LOOP('',(#69));
#195=EDGE_LOOP('',(#70));
#196=EDGE_LOOP('',(#71));
#197=EDGE_LOOP('',(#72));
#198=EDGE_LOOP('',(#73));
#199=EDGE_LOOP('',(#74));
#200=EDGE_LOOP('',(#75));
#201=EDGE_LOOP('',(#76));
#202=EDGE_LOOP('',(#77));
#203=EDGE_LOOP('',(#78));
#204=EDGE_LOOP('',(#79));
#205=EDGE_LOOP('',(#80));
#206=EDGE_LOOP('',(#81));
#207=EDGE_LOOP('',(#82));
#208=EDGE_LOOP('',(#83));
#209=EDGE_LOOP('',(#84));
#210=EDGE_LOOP('',(#85));
#211=EDGE_LOOP('',(#86));
#212=EDGE_LOOP('',(#87));
#213=EDGE_LOOP('',(#88));
#214=EDGE_LOOP('',(#89));
#215=EDGE_LOOP('',(#90));
#216=EDGE_LOOP('',(#91));
#217=FACE_BOUND('',#167,.T.);
#218=FACE_BOUND('',#168,.T.);
#219=FACE_BOUND('',#169,.T.);
#220=FACE_BOUND('',#170,.T.);
#221=FACE_BOUND('',#171,.T.);
#222=FACE_BOUND('',#172,.T.);
#223=FACE_BOUND('',#173,.T.);
#224=FACE_BOUND('',#174,.T.);
#225=FACE_BOUND('',#175,.T.);
#226=FACE_BOUND('',#176,.T.);
#227=FACE_BOUND('',#177,.T.);
#228=FACE_BOUND('',#178,.T.);
#229=FACE_BOUND('',#179,.T.);
#230=FACE_BOUND('',#180,.T.);
#231=FACE_BOUND('',#181,.T.);
#232=FACE_BOUND('',#182,.T.);
#233=FACE_BOUND('',#183,.T.);
#234=FACE_BOUND('',#184,.T.);
#235=FACE_BOUND('',#185,.T.);
#236=FACE_BOUND('',#186,.T.);
#237=FACE_BOUND('',#187,.T.);
#238=FACE_BOUND('',#188,.T.);
#239=FACE_BOUND('',#189,.T.);
#240=FACE_BOUND('',#190,.T.);
#241=FACE_BOUND('',#191,.T.);
#242=FACE_BOUND('',#192,.T.);
#243=FACE_BOUND('',#193,.T.);
#244=FACE_BOUND('',#194,.T.);
#245=FACE_BOUND('',#195,.T.);
#246=FACE_BOUND('',#196,.T.);
#247=FACE_BOUND('',#197,.T.);
#248=FACE_BOUND('',#198,.T.);
#249=FACE_BOUND('',#199,.T.);
#250=FACE_BOUND('',#200,.T.);
#251=FACE_BOUND('',#201,.T.);
#252=FACE_BOUND('',#202,.T.);
#253=FACE_BOUND('',#203,.T.);
#254=FACE_BOUND('',#204,.T.);
#255=FACE_BOUND('',#205,.T.);
#256=FACE_BOUND('',#206,.T.);
#257=FACE_BOUND('',#207,.T.);
#258=FACE_BOUND('',#208,.T.);
#259=FACE_BOUND('',#209,.T.);
#260=FACE_BOUND('',#210,.T.);
#261=FACE_BOUND('',#211,.T.);
#262=FACE_BOUND('',#212,.T.);
#263=FACE_BOUND('',#213,.T.);
#264=FACE_BOUND('',#214,.T.);
#265=FACE_BOUND('',#215,.T.);
#266=FACE_BOUND('',#216,.T.);
#267=CONICAL_SURFACE('',#308,20.,0.785398163397434);
#268=CONICAL_SURFACE('',#313,6.6,0.785398163397449);
#269=CONICAL_SURFACE('',#357,11.,0.785398163397448);
#270=ADVANCED_FACE('',(#217,#218),#267,.T.);
#271=ADVANCED_FACE('',(#219,#220),#31,.T.);
#272=ADVANCED_FACE('',(#221,#222),#268,.F.);
#273=ADVANCED_FACE('',(#223,#224),#20,.F.);
#274=ADVANCED_FACE('',(#225,#226),#32,.T.);
#275=ADVANCED_FACE('',(#227,#228),#21,.F.);
#276=ADVANCED_FACE('',(#229,#230),#33,.T.);
#277=ADVANCED_FACE('',(#231,#232),#22,.F.);
#278=ADVANCED_FACE('',(#233,#234),#34,.T.);
#279=ADVANCED_FACE('',(#235,#236),#23,.F.);
#280=ADVANCED_FACE('',(#237,#238),#35,.T.);
#281=ADVANCED_FACE('',(#239,#240),#24,.F.);
#282=ADVANCED_FACE('',(#241,#242),#36,.T.);
#283=ADVANCED_FACE('',(#243,#244),#25,.T.);
#284=ADVANCED_FACE('',(#245,#246),#37,.T.);
#285=ADVANCED_FACE('',(#247,#248),#26,.T.);
#286=ADVANCED_FACE('',(#249,#250),#38,.T.);
#287=ADVANCED_FACE('',(#251,#252),#27,.T.);
#288=ADVANCED_FACE('',(#253,#254),#39,.T.);
#289=ADVANCED_FACE('',(#255,#256),#28,.T.);
#290=ADVANCED_FACE('',(#257,#258),#40,.T.);
#291=ADVANCED_FACE('',(#259,#260),#29,.F.);
#292=ADVANCED_FACE('',(#261,#262),#41,.T.);
#293=ADVANCED_FACE('',(#263,#264),#30,.T.);
#294=ADVANCED_FACE('',(#265,#266),#269,.T.);
#295=CLOSED_SHELL('',(#270,#271,#272,#273,#274,#275,#276,#277,#278,#279,
#280,#281,#282,#283,#284,#285,#286,#287,#288,#289,#290,#291,#292,#293,#294));
#296=STYLED_ITEM('',(#297),#304);
#297=PRESENTATION_STYLE_ASSIGNMENT((#298));
#298=SURFACE_STYLE_USAGE(.BOTH.,#299);
#299=SURFACE_SIDE_STYLE('',(#300));
#300=SURFACE_STYLE_FILL_AREA(#301);
#301=FILL_AREA_STYLE('',(#302));
#302=FILL_AREA_STYLE_COLOUR('',#303);
#303=COLOUR_RGB('',0.449999988079071,0.333433717489243,0.224999994039536);
#304=MANIFOLD_SOLID_BREP('',#295);
#305=SHAPE_DEFINITION_REPRESENTATION(#542,#306);
#306=SHAPE_REPRESENTATION('palier',(#307),#537);
#307=AXIS2_PLACEMENT_3D('',#460,#358,#359);
#308=AXIS2_PLACEMENT_3D('',#461,#360,#361);
#309=AXIS2_PLACEMENT_3D('',#462,#362,#363);
#310=AXIS2_PLACEMENT_3D('',#464,#364,#365);
#311=AXIS2_PLACEMENT_3D('',#466,#366,#367);
#312=AXIS2_PLACEMENT_3D('',#467,#368,#369);
#313=AXIS2_PLACEMENT_3D('',#469,#370,#371);
#314=AXIS2_PLACEMENT_3D('',#470,#372,#373);
#315=AXIS2_PLACEMENT_3D('',#472,#374,#375);
#316=AXIS2_PLACEMENT_3D('',#473,#376,#377);
#317=AXIS2_PLACEMENT_3D('',#475,#378,#379);
#318=AXIS2_PLACEMENT_3D('',#476,#380,#381);
#319=AXIS2_PLACEMENT_3D('',#478,#382,#383);
#320=AXIS2_PLACEMENT_3D('',#479,#384,#385);
#321=AXIS2_PLACEMENT_3D('',#481,#386,#387);
#322=AXIS2_PLACEMENT_3D('',#482,#388,#389);
#323=AXIS2_PLACEMENT_3D('',#484,#390,#391);
#324=AXIS2_PLACEMENT_3D('',#485,#392,#393);
#325=AXIS2_PLACEMENT_3D('',#487,#394,#395);
#326=AXIS2_PLACEMENT_3D('',#488,#396,#397);
#327=AXIS2_PLACEMENT_3D('',#490,#398,#399);
#328=AXIS2_PLACEMENT_3D('',#491,#400,#401);
#329=AXIS2_PLACEMENT_3D('',#493,#402,#403);
#330=AXIS2_PLACEMENT_3D('',#494,#404,#405);
#331=AXIS2_PLACEMENT_3D('',#496,#406,#407);
#332=AXIS2_PLACEMENT_3D('',#497,#408,#409);
#333=AXIS2_PLACEMENT_3D('',#499,#410,#411);
#334=AXIS2_PLACEMENT_3D('',#500,#412,#413);
#335=AXIS2_PLACEMENT_3D('',#502,#414,#415);
#336=AXIS2_PLACEMENT_3D('',#503,#416,#417);
#337=AXIS2_PLACEMENT_3D('',#505,#418,#419);
#338=AXIS2_PLACEMENT_3D('',#507,#420,#421);
#339=AXIS2_PLACEMENT_3D('',#508,#422,#423);
#340=AXIS2_PLACEMENT_3D('',#510,#424,#425);
#341=AXIS2_PLACEMENT_3D('',#511,#426,#427);
#342=AXIS2_PLACEMENT_3D('',#513,#428,#429);
#343=AXIS2_PLACEMENT_3D('',#514,#430,#431);
#344=AXIS2_PLACEMENT_3D('',#516,#432,#433);
#345=AXIS2_PLACEMENT_3D('',#517,#434,#435);
#346=AXIS2_PLACEMENT_3D('',#519,#436,#437);
#347=AXIS2_PLACEMENT_3D('',#520,#438,#439);
#348=AXIS2_PLACEMENT_3D('',#522,#440,#441);
#349=AXIS2_PLACEMENT_3D('',#523,#442,#443);
#350=AXIS2_PLACEMENT_3D('',#525,#444,#445);
#351=AXIS2_PLACEMENT_3D('',#526,#446,#447);
#352=AXIS2_PLACEMENT_3D('',#528,#448,#449);
#353=AXIS2_PLACEMENT_3D('',#529,#450,#451);
#354=AXIS2_PLACEMENT_3D('',#531,#452,#453);
#355=AXIS2_PLACEMENT_3D('',#532,#454,#455);
#356=AXIS2_PLACEMENT_3D('',#534,#456,#457);
#357=AXIS2_PLACEMENT_3D('',#535,#458,#459);
#358=DIRECTION('',(0.,0.,1.));
#359=DIRECTION('',(1.,0.,0.));
#360=DIRECTION('',(-6.12303176911189E-17,-1.,-1.33917876593058E-16));
#361=DIRECTION('',(0.,1.33917876593058E-16,-1.));
#362=DIRECTION('',(-6.12303176911189E-17,-1.,-1.33917876593058E-16));
#363=DIRECTION('',(0.,1.33917876593058E-16,-1.));
#364=DIRECTION('',(-6.12303176911189E-17,-1.,-1.33917876593058E-16));
#365=DIRECTION('',(0.,1.33917876593058E-16,-1.));
#366=DIRECTION('',(6.12303176911189E-17,1.,1.33917876593058E-16));
#367=DIRECTION('',(0.,-1.33917876593058E-16,1.));
#368=DIRECTION('',(-6.12303176911189E-17,-1.,-1.33917876593058E-16));
#369=DIRECTION('',(0.,1.33917876593058E-16,-1.));
#370=DIRECTION('',(6.12303176911189E-17,1.,1.33917876593058E-16));
#371=DIRECTION('',(0.,-1.33917876593058E-16,1.));
#372=DIRECTION('',(-6.12303176911189E-17,-1.,-1.33917876593058E-16));
#373=DIRECTION('',(0.,1.33917876593058E-16,-1.));
#374=DIRECTION('',(-6.12303176911189E-17,-1.,-1.33917876593058E-16));
#375=DIRECTION('',(0.,1.33917876593058E-16,-1.));
#376=DIRECTION('',(-6.12303176911189E-17,-1.,-1.33917876593058E-16));
#377=DIRECTION('',(0.,1.33917876593058E-16,-1.));
#378=DIRECTION('',(-6.12303176911189E-17,-1.,-1.33917876593058E-16));
#379=DIRECTION('',(0.,1.33917876593058E-16,-1.));
#380=DIRECTION('',(-6.12303176911189E-17,-1.,-1.33917876593058E-16));
#381=DIRECTION('',(0.,1.33917876593058E-16,-1.));
#382=DIRECTION('',(-6.12303176911189E-17,-1.,-1.33917876593058E-16));
#383=DIRECTION('',(0.,1.33917876593058E-16,-1.));
#384=DIRECTION('',(-6.12303176911189E-17,-1.,-1.33917876593058E-16));
#385=DIRECTION('',(0.,1.33917876593058E-16,-1.));
#386=DIRECTION('',(6.12303176911189E-17,1.,1.33917876593058E-16));
#387=DIRECTION('',(0.,-1.33917876593058E-16,1.));
#388=DIRECTION('',(-6.12303176911189E-17,-1.,-1.33917876593058E-16));
#389=DIRECTION('',(0.,1.33917876593058E-16,-1.));
#390=DIRECTION('',(-6.12303176911189E-17,-1.,-1.33917876593058E-16));
#391=DIRECTION('',(0.,1.33917876593058E-16,-1.));
#392=DIRECTION('',(-6.12303176911189E-17,-1.,-1.33917876593058E-16));
#393=DIRECTION('',(0.,1.33917876593058E-16,-1.));
#394=DIRECTION('',(-6.12303176911189E-17,-1.,-1.33917876593058E-16));
#395=DIRECTION('',(0.,1.33917876593058E-16,-1.));
#396=DIRECTION('',(-6.12303176911189E-17,-1.,-1.33917876593058E-16));
#397=DIRECTION('',(0.,1.33917876593058E-16,-1.));
#398=DIRECTION('',(-6.12303176911189E-17,-1.,-1.33917876593058E-16));
#399=DIRECTION('',(0.,1.33917876593058E-16,-1.));
#400=DIRECTION('',(-6.12303176911189E-17,-1.,-1.33917876593058E-16));
#401=DIRECTION('',(0.,1.33917876593058E-16,-1.));
#402=DIRECTION('',(6.12303176911189E-17,1.,1.33917876593058E-16));
#403=DIRECTION('',(0.,-1.33917876593058E-16,1.));
#404=DIRECTION('',(-6.12303176911189E-17,-1.,-1.33917876593058E-16));
#405=DIRECTION('',(0.,1.33917876593058E-16,-1.));
#406=DIRECTION('',(-6.12303176911189E-17,-1.,-1.33917876593058E-16));
#407=DIRECTION('',(0.,1.33917876593058E-16,-1.));
#408=DIRECTION('',(-6.12303176911189E-17,-1.,-1.33917876593058E-16));
#409=DIRECTION('',(0.,1.33917876593058E-16,-1.));
#410=DIRECTION('',(-6.12303176911189E-17,-1.,-1.33917876593058E-16));
#411=DIRECTION('',(0.,1.33917876593058E-16,-1.));
#412=DIRECTION('',(-6.12303176911189E-17,-1.,-1.33917876593058E-16));
#413=DIRECTION('',(0.,1.33917876593058E-16,-1.));
#414=DIRECTION('',(-6.12303176911189E-17,-1.,-1.33917876593058E-16));
#415=DIRECTION('',(0.,1.33917876593058E-16,-1.));
#416=DIRECTION('',(-6.12303176911192E-17,-1.,-1.33917876593061E-16));
#417=DIRECTION('',(0.,1.33917876593061E-16,-1.));
#418=DIRECTION('',(-6.12303176911189E-17,-1.,-1.33917876593058E-16));
#419=DIRECTION('',(0.,1.33917876593058E-16,-1.));
#420=DIRECTION('',(6.12303176911189E-17,1.,1.33917876593058E-16));
#421=DIRECTION('',(0.,-1.33917876593058E-16,1.));
#422=DIRECTION('',(-6.12303176911189E-17,-1.,-1.33917876593058E-16));
#423=DIRECTION('',(0.,1.33917876593058E-16,-1.));
#424=DIRECTION('',(-6.12303176911189E-17,-1.,-1.33917876593058E-16));
#425=DIRECTION('',(0.,1.33917876593058E-16,-1.));
#426=DIRECTION('',(-6.12303176911189E-17,-1.,-1.33917876593058E-16));
#427=DIRECTION('',(0.,1.33917876593058E-16,-1.));
#428=DIRECTION('',(-6.12303176911189E-17,-1.,-1.33917876593058E-16));
#429=DIRECTION('',(0.,1.33917876593058E-16,-1.));
#430=DIRECTION('',(-6.12303176911189E-17,-1.,-1.33917876593058E-16));
#431=DIRECTION('',(0.,1.33917876593058E-16,-1.));
#432=DIRECTION('',(-6.12303176911189E-17,-1.,-1.33917876593058E-16));
#433=DIRECTION('',(0.,1.33917876593058E-16,-1.));
#434=DIRECTION('',(-6.12303176911189E-17,-1.,-1.33917876593058E-16));
#435=DIRECTION('',(0.,1.33917876593058E-16,-1.));
#436=DIRECTION('',(-6.12303176911189E-17,-1.,-1.33917876593058E-16));
#437=DIRECTION('',(0.,1.33917876593058E-16,-1.));
#438=DIRECTION('',(-6.12303176911189E-17,-1.,-1.33917876593058E-16));
#439=DIRECTION('',(0.,1.33917876593058E-16,-1.));
#440=DIRECTION('',(-6.12303176911189E-17,-1.,-1.33917876593058E-16));
#441=DIRECTION('',(0.,1.33917876593058E-16,-1.));
#442=DIRECTION('',(-6.12303176911189E-17,-1.,-1.33917876593058E-16));
#443=DIRECTION('',(0.,1.33917876593058E-16,-1.));
#444=DIRECTION('',(-6.12303176911189E-17,-1.,-1.33917876593058E-16));
#445=DIRECTION('',(0.,1.33917876593058E-16,-1.));
#446=DIRECTION('',(-6.12303176911189E-17,-1.,-1.33917876593058E-16));
#447=DIRECTION('',(0.,1.33917876593058E-16,-1.));
#448=DIRECTION('',(-6.12303176911189E-17,-1.,-1.33917876593058E-16));
#449=DIRECTION('',(0.,1.33917876593058E-16,-1.));
#450=DIRECTION('',(-6.12303176911189E-17,-1.,-1.33917876593058E-16));
#451=DIRECTION('',(0.,1.33917876593058E-16,-1.));
#452=DIRECTION('',(-6.12303176911189E-17,-1.,-1.33917876593058E-16));
#453=DIRECTION('',(0.,1.33917876593058E-16,-1.));
#454=DIRECTION('',(-6.12303176911189E-17,-1.,-1.33917876593058E-16));
#455=DIRECTION('',(0.,1.33917876593058E-16,-1.));
#456=DIRECTION('',(-6.12303176911189E-17,-1.,-1.33917876593058E-16));
#457=DIRECTION('',(0.,1.33917876593058E-16,-1.));
#458=DIRECTION('',(6.12303176911192E-17,1.,1.33917876593061E-16));
#459=DIRECTION('',(0.,-1.33917876593061E-16,1.));
#460=CARTESIAN_POINT('',(0.,0.,0.));
#461=CARTESIAN_POINT('',(-6.39856819872192E-15,-104.5,-1.39944181039746E-14));
#462=CARTESIAN_POINT('',(-6.36795303987636E-15,-104.,-1.39274591656781E-14));
#463=CARTESIAN_POINT('',(-6.36795303987636E-15,-104.,-19.5));
#464=CARTESIAN_POINT('',(-6.39856819872192E-15,-104.5,-1.39944181039746E-14));
#465=CARTESIAN_POINT('',(-6.39856819872192E-15,-104.5,-20.));
#466=CARTESIAN_POINT('',(-6.36795303987636E-15,-104.,19.5));
#467=CARTESIAN_POINT('',(-6.36795303987636E-15,-104.,-1.39274591656781E-14));
#468=CARTESIAN_POINT('',(-6.36795303987636E-15,-104.,-6.60000000000001));
#469=CARTESIAN_POINT('',(-6.36795303987636E-15,-104.,-1.39274591656781E-14));
#470=CARTESIAN_POINT('',(-6.39856819872192E-15,-104.5,-1.39944181039746E-14));
#471=CARTESIAN_POINT('',(-6.39856819872192E-15,-104.5,-6.10000000000001));
#472=CARTESIAN_POINT('',(0.,0.,0.));
#473=CARTESIAN_POINT('',(-6.55164399294971E-15,-107.,-1.43292127954572E-14));
#474=CARTESIAN_POINT('',(-6.55164399294971E-15,-107.,-6.10000000000001));
#475=CARTESIAN_POINT('',(-6.55164399294971E-15,-107.,6.09999999999998));
#476=CARTESIAN_POINT('',(-6.55164399294971E-15,-107.,-1.43292127954572E-14));
#477=CARTESIAN_POINT('',(-6.55164399294971E-15,-107.,-8.10000000000001));
#478=CARTESIAN_POINT('',(0.,0.,0.));
#479=CARTESIAN_POINT('',(-6.70471978717751E-15,-109.5,-1.46640074869399E-14));
#480=CARTESIAN_POINT('',(-6.70471978717751E-15,-109.5,-8.10000000000001));
#481=CARTESIAN_POINT('',(-6.70471978717751E-15,-109.5,8.09999999999999));
#482=CARTESIAN_POINT('',(-6.70471978717751E-15,-109.5,-1.46640074869399E-14));
#483=CARTESIAN_POINT('',(-6.70471978717751E-15,-109.5,-6.10000000000001));
#484=CARTESIAN_POINT('',(0.,0.,0.));
#485=CARTESIAN_POINT('',(-7.07210169332422E-15,-115.5,-1.54675147464982E-14));
#486=CARTESIAN_POINT('',(-7.07210169332422E-15,-115.5,-6.10000000000001));
#487=CARTESIAN_POINT('',(-7.07210169332422E-15,-115.5,6.09999999999998));
#488=CARTESIAN_POINT('',(-7.07210169332422E-15,-115.5,-1.54675147464982E-14));
#489=CARTESIAN_POINT('',(-7.07210169332422E-15,-115.5,-8.10000000000002));
#490=CARTESIAN_POINT('',(0.,0.,0.));
#491=CARTESIAN_POINT('',(-7.22517748755202E-15,-118.,-1.58023094379809E-14));
#492=CARTESIAN_POINT('',(-7.22517748755202E-15,-118.,-8.10000000000002));
#493=CARTESIAN_POINT('',(-7.22517748755202E-15,-118.,8.09999999999998));
#494=CARTESIAN_POINT('',(-7.22517748755202E-15,-118.,-1.58023094379809E-14));
#495=CARTESIAN_POINT('',(-7.22517748755202E-15,-118.,-6.10000000000001));
#496=CARTESIAN_POINT('',(0.,0.,0.));
#497=CARTESIAN_POINT('',(-7.34763812293426E-15,-120.,-1.6070145191167E-14));
#498=CARTESIAN_POINT('',(-7.34763812293426E-15,-120.,-6.10000000000001));
#499=CARTESIAN_POINT('',(-7.34763812293426E-15,-120.,12.));
#500=CARTESIAN_POINT('',(-7.34763812293426E-15,-120.,-1.6070145191167E-14));
#501=CARTESIAN_POINT('',(-7.34763812293426E-15,-120.,-11.));
#502=CARTESIAN_POINT('',(0.,0.,0.));
#503=CARTESIAN_POINT('',(-7.28640780524314E-15,-119.,-1.59362273145739E-14));
#504=CARTESIAN_POINT('',(-7.28640780524314E-15,-119.,-12.));
#505=CARTESIAN_POINT('',(-7.13945504278446E-15,-116.6,-1.56148244107506E-14));
#506=CARTESIAN_POINT('',(-7.13945504278446E-15,-116.6,-12.));
#507=CARTESIAN_POINT('',(-7.13945504278446E-15,-116.6,11.1));
#508=CARTESIAN_POINT('',(-7.13945504278446E-15,-116.6,-1.56148244107506E-14));
#509=CARTESIAN_POINT('',(-7.13945504278446E-15,-116.6,-11.1));
#510=CARTESIAN_POINT('',(0.,0.,0.));
#511=CARTESIAN_POINT('',(-7.05373259801689E-15,-115.2,-1.54273393835203E-14));
#512=CARTESIAN_POINT('',(-7.05373259801689E-15,-115.2,-11.1));
#513=CARTESIAN_POINT('',(-7.05373259801689E-15,-115.2,12.));
#514=CARTESIAN_POINT('',(-7.05373259801689E-15,-115.2,-1.54273393835203E-14));
#515=CARTESIAN_POINT('',(-7.05373259801689E-15,-115.2,-12.));
#516=CARTESIAN_POINT('',(0.,0.,0.));
#517=CARTESIAN_POINT('',(-6.61287431064084E-15,-108.,-1.44631306720503E-14));
#518=CARTESIAN_POINT('',(-6.61287431064084E-15,-108.,-12.));
#519=CARTESIAN_POINT('',(-6.61287431064084E-15,-108.,14.));
#520=CARTESIAN_POINT('',(-6.61287431064084E-15,-108.,-1.44631306720503E-14));
#521=CARTESIAN_POINT('',(-6.61287431064084E-15,-108.,-14.));
#522=CARTESIAN_POINT('',(0.,0.,0.));
#523=CARTESIAN_POINT('',(-6.55164399294972E-15,-107.,-1.43292127954572E-14));
#524=CARTESIAN_POINT('',(-6.55164399294972E-15,-107.,-14.));
#525=CARTESIAN_POINT('',(-6.55164399294972E-15,-107.,17.));
#526=CARTESIAN_POINT('',(-6.55164399294972E-15,-107.,-1.43292127954572E-14));
#527=CARTESIAN_POINT('',(-6.55164399294972E-15,-107.,-17.));
#528=CARTESIAN_POINT('',(0.,0.,0.));
#529=CARTESIAN_POINT('',(-6.61287431064084E-15,-108.,-1.44631306720503E-14));
#530=CARTESIAN_POINT('',(-6.61287431064084E-15,-108.,-17.));
#531=CARTESIAN_POINT('',(-6.61287431064084E-15,-108.,20.));
#532=CARTESIAN_POINT('',(-6.61287431064084E-15,-108.,-1.44631306720503E-14));
#533=CARTESIAN_POINT('',(-6.61287431064084E-15,-108.,-20.));
#534=CARTESIAN_POINT('',(0.,0.,0.));
#535=CARTESIAN_POINT('',(-7.34763812293426E-15,-120.,-1.6070145191167E-14));
#536=MECHANICAL_DESIGN_GEOMETRIC_PRESENTATION_REPRESENTATION('',(#296),
#537);
#537=(
GEOMETRIC_REPRESENTATION_CONTEXT(3)
GLOBAL_UNCERTAINTY_ASSIGNED_CONTEXT((#538))
GLOBAL_UNIT_ASSIGNED_CONTEXT((#541,#540,#539))
REPRESENTATION_CONTEXT('palier','TOP_LEVEL_ASSEMBLY_PART')
);
#538=UNCERTAINTY_MEASURE_WITH_UNIT(LENGTH_MEASURE(0.005),#541,
'DISTANCE_ACCURACY_VALUE','Maximum Tolerance applied to model');
#539=(
NAMED_UNIT(*)
SI_UNIT($,.STERADIAN.)
SOLID_ANGLE_UNIT()
);
#540=(
NAMED_UNIT(*)
PLANE_ANGLE_UNIT()
SI_UNIT($,.RADIAN.)
);
#541=(
LENGTH_UNIT()
NAMED_UNIT(*)
SI_UNIT(.MILLI.,.METRE.)
);
#542=PRODUCT_DEFINITION_SHAPE('','',#543);
#543=PRODUCT_DEFINITION('','',#545,#544);
#544=PRODUCT_DEFINITION_CONTEXT('',#551,'design');
#545=PRODUCT_DEFINITION_FORMATION_WITH_SPECIFIED_SOURCE('','',#547,
 .NOT_KNOWN.);
#546=PRODUCT_RELATED_PRODUCT_CATEGORY('','',(#547));
#547=PRODUCT('palier','palier','palier',(#549));
#548=PRODUCT_CATEGORY('','');
#549=PRODUCT_CONTEXT('',#551,'mechanical');
#550=APPLICATION_PROTOCOL_DEFINITION('international standard',
'automotive_design',2010,#551);
#551=APPLICATION_CONTEXT(
'core data for automotive mechanical design processes');
ENDSEC;
END-ISO-10303-21;
