ISO-10303-21;
HEADER;

/* File generated by Shapr3D Version 3.0 */

FILE_DESCRIPTION(('HOOPS Exchange Step'),'2;1');

FILE_NAME('/private/var/mobile/Containers/Data/Application/27846B57-8B49-44E1-BDDF-7DFC426027F9/tmp/export/temp_export',
'2020-11-25T18:22:17+01:00',
('mobile'),
('Shapr3D Limited'),
'HOOPS Exchange 2020.2',
'Shapr3D',
'Authorized');

FILE_SCHEMA( ('AP203_CONFIGURATION_CONTROLLED_3D_DESIGN_OF_MECHANICAL_PARTS_AND_ASSEMBLIES_MIM_LF') );

ENDSEC;

DATA;
#3=(NAMED_UNIT(*)PLANE_ANGLE_UNIT()SI_UNIT($,.RADIAN.));
#4=PLANE_ANGLE_MEASURE_WITH_UNIT(PLANE_ANGLE_MEASURE(0.0174532925),#3);
#5=(CONVERSION_BASED_UNIT('DEGREE',#4)NAMED_UNIT(#6)PLANE_ANGLE_UNIT());
#6=DIMENSIONAL_EXPONENTS(0.,0.,0.,0.,0.,0.,0.);
#7=(NAMED_UNIT(*)SI_UNIT($,.STERADIAN.)SOLID_ANGLE_UNIT());
#8=(LENGTH_UNIT()NAMED_UNIT(*)SI_UNIT(.MILLI.,.METRE.));
#9=UNCERTAINTY_MEASURE_WITH_UNIT(LENGTH_MEASURE(1.000000E-05),#8,'DISTANCE_ACCURACY_VALUE','Maximum Tolerance applied to model');
#10=(GEOMETRIC_REPRESENTATION_CONTEXT(3)GLOBAL_UNCERTAINTY_ASSIGNED_CONTEXT((#9))GLOBAL_UNIT_ASSIGNED_CONTEXT((#8,#5,#7))REPRESENTATION_CONTEXT('','/var/mobile/Containers/Data/Application/27846B57-8B49-44E1-BDDF-7DFC426027F9/Documents/82A62986-6FBC-434D-9E0D-07E46670FF81.tmp'));
#12=CARTESIAN_POINT('',(0.,0.,0.));
#13=DIRECTION('',(0.,0.,1.));
#14=DIRECTION('',(1.,0.,0.));
#15=AXIS2_PLACEMENT_3D('',#12,#13,#14);
#27=CARTESIAN_POINT('',(12.1,15.146426857,9.033304639));
#28=DIRECTION('',(-1.,0.,0.));
#29=DIRECTION('',(0.,0.,1.));
#30=AXIS2_PLACEMENT_3D('',#27,#28,#29);
#31=CYLINDRICAL_SURFACE('',#30,1.65);
#32=CARTESIAN_POINT('',(0.,15.146426857,10.683304639));
#33=VERTEX_POINT('',#32);
#34=CARTESIAN_POINT('',(5.,15.146426857,10.683304639));
#35=VERTEX_POINT('',#34);
#36=CARTESIAN_POINT('',(-0.,15.146426857,10.683304639));
#37=DIRECTION('',(1.,-0.,-0.));
#38=VECTOR('',#37,5.);
#39=LINE('',#36,#38);
#40=EDGE_CURVE('',#33,#35,#39,.T.);
#41=ORIENTED_EDGE('',*,*,#40,.F.);
#42=CARTESIAN_POINT('',(0.,15.146426857,7.383304639));
#43=VERTEX_POINT('',#42);
#44=CARTESIAN_POINT('',(0.,15.146426857,9.033304639));
#45=DIRECTION('',(-1.,-0.,-0.));
#46=DIRECTION('',(0.,0.,-1.));
#47=AXIS2_PLACEMENT_3D('',#44,#45,#46);
#48=CIRCLE('',#47,1.65);
#49=EDGE_CURVE('',#33,#43,#48,.T.);
#50=ORIENTED_EDGE('',*,*,#49,.T.);
#51=CARTESIAN_POINT('',(0.,15.146426857,9.033304639));
#52=DIRECTION('',(-1.,-0.,-0.));
#53=DIRECTION('',(0.,0.,-1.));
#54=AXIS2_PLACEMENT_3D('',#51,#52,#53);
#55=CIRCLE('',#54,1.65);
#56=EDGE_CURVE('',#43,#33,#55,.T.);
#57=ORIENTED_EDGE('',*,*,#56,.T.);
#58=ORIENTED_EDGE('',*,*,#40,.T.);
#59=CARTESIAN_POINT('',(5.,15.146426857,7.383304639));
#60=VERTEX_POINT('',#59);
#61=CARTESIAN_POINT('',(5.,15.146426857,9.033304639));
#62=DIRECTION('',(1.,0.,0.));
#63=DIRECTION('',(0.,0.,-1.));
#64=AXIS2_PLACEMENT_3D('',#61,#62,#63);
#65=CIRCLE('',#64,1.65);
#66=EDGE_CURVE('',#35,#60,#65,.T.);
#67=ORIENTED_EDGE('',*,*,#66,.T.);
#68=CARTESIAN_POINT('',(5.,15.146426857,9.033304639));
#69=DIRECTION('',(1.,0.,0.));
#70=DIRECTION('',(0.,0.,-1.));
#71=AXIS2_PLACEMENT_3D('',#68,#69,#70);
#72=CIRCLE('',#71,1.65);
#73=EDGE_CURVE('',#60,#35,#72,.T.);
#74=ORIENTED_EDGE('',*,*,#73,.T.);
#75=EDGE_LOOP('',(#41,#50,#57,#58,#67,#74));
#76=FACE_BOUND('',#75,.T.);
#77=ADVANCED_FACE('',(#76),#31,.F.);
#78=CARTESIAN_POINT('',(7.,12.751436695,13.432304006));
#79=DIRECTION('',(0.,0.,-1.));
#80=DIRECTION('',(-1.,0.,0.));
#81=AXIS2_PLACEMENT_3D('',#78,#79,#80);
#82=PLANE('',#81);
#83=CARTESIAN_POINT('',(3.946433144,10.604588525,13.432304006));
#84=VERTEX_POINT('',#83);
#85=CARTESIAN_POINT('',(0.,10.604588525,13.432304006));
#86=VERTEX_POINT('',#85);
#87=CARTESIAN_POINT('',(3.946433144,10.604588525,13.432304006));
#88=DIRECTION('',(-1.,0.,0.));
#89=VECTOR('',#88,3.946433144);
#90=LINE('',#87,#89);
#91=EDGE_CURVE('',#84,#86,#90,.T.);
#92=ORIENTED_EDGE('',*,*,#91,.F.);
#93=CARTESIAN_POINT('',(7.,12.020845222,13.432304006));
#94=VERTEX_POINT('',#93);
#95=CARTESIAN_POINT('',(7.,8.020845222,13.432304006));
#96=DIRECTION('',(0.,0.,-1.));
#97=DIRECTION('',(-1.,0.,0.));
#98=AXIS2_PLACEMENT_3D('',#95,#96,#97);
#99=CIRCLE('',#98,4.);
#100=EDGE_CURVE('',#84,#94,#99,.T.);
#101=ORIENTED_EDGE('',*,*,#100,.T.);
#102=CARTESIAN_POINT('',(7.,14.898284866,13.432304006));
#103=VERTEX_POINT('',#102);
#104=CARTESIAN_POINT('',(7.,14.898284866,13.432304006));
#105=DIRECTION('',(0.,-1.,0.));
#106=VECTOR('',#105,2.877439643);
#107=LINE('',#104,#106);
#108=EDGE_CURVE('',#103,#94,#107,.T.);
#109=ORIENTED_EDGE('',*,*,#108,.F.);
#110=CARTESIAN_POINT('',(0.,14.898284866,13.432304006));
#111=VERTEX_POINT('',#110);
#112=CARTESIAN_POINT('',(7.,14.898284866,13.432304006));
#113=DIRECTION('',(-1.,0.,0.));
#114=VECTOR('',#113,7.);
#115=LINE('',#112,#114);
#116=EDGE_CURVE('',#103,#111,#115,.T.);
#117=ORIENTED_EDGE('',*,*,#116,.T.);
#118=CARTESIAN_POINT('',(0.,14.898284866,13.432304006));
#119=DIRECTION('',(0.,-1.,0.));
#120=VECTOR('',#119,4.29369634);
#121=LINE('',#118,#120);
#122=EDGE_CURVE('',#111,#86,#121,.T.);
#123=ORIENTED_EDGE('',*,*,#122,.T.);
#124=EDGE_LOOP('',(#92,#101,#109,#117,#123));
#125=FACE_BOUND('',#124,.T.);
#126=ADVANCED_FACE('',(#125),#82,.F.);
#127=CARTESIAN_POINT('',(3.946433144,10.604588525,13.432304006));
#128=CARTESIAN_POINT('',(0.,10.604588525,13.432304006));
#129=CARTESIAN_POINT('',(3.946433144,1.604601241,13.4323031));
#130=CARTESIAN_POINT('',(0.,1.604601241,13.4323031));
#131=CARTESIAN_POINT('',(3.946433144,1.604595789,4.432315816));
#132=CARTESIAN_POINT('',(0.,1.604595789,4.432315816));
#133=CARTESIAN_POINT('',(3.946433144,10.604583074,4.432304006));
#134=CARTESIAN_POINT('',(0.,10.604583074,4.432304006));
#135=(BOUNDED_SURFACE()
B_SPLINE_SURFACE(3,1,((#127,#128),(#129,#130),(#131,#132),(#133,#134)),.UNSPECIFIED.,.F.,.F.,.U.)
B_SPLINE_SURFACE_WITH_KNOTS((4,4),(2,2),(0.,1.),(0.436223837,1.),.UNSPECIFIED.)
GEOMETRIC_REPRESENTATION_ITEM()
RATIONAL_B_SPLINE_SURFACE(((1.,1.),(0.333333804,0.333333804),(0.333333804,0.333333804),(1.,1.)))
REPRESENTATION_ITEM('')
SURFACE()
);
#136=CARTESIAN_POINT('',(3.946428531,10.604583074,4.432304006));
#137=VERTEX_POINT('',#136);
#138=CARTESIAN_POINT('',(0.,10.604583074,4.432304006));
#139=VERTEX_POINT('',#138);
#140=CARTESIAN_POINT('',(3.946428531,10.604583074,4.432304006));
#141=DIRECTION('',(-1.,0.,0.));
#142=VECTOR('',#141,3.946428531);
#143=LINE('',#140,#142);
#144=EDGE_CURVE('',#137,#139,#143,.T.);
#145=ORIENTED_EDGE('',*,*,#144,.F.);
#146=CARTESIAN_POINT('',(3.946428531,10.604583074,4.432304006));
#147=CARTESIAN_POINT('',(3.747543377,10.369532125,4.432304314));
#148=CARTESIAN_POINT('',(3.579633349,10.116674226,4.450520227));
#149=CARTESIAN_POINT('',(3.441551294,9.84771216,4.496412046));
#150=CARTESIAN_POINT('',(3.372510267,9.713231126,4.519357955));
#151=CARTESIAN_POINT('',(3.310994916,9.574249714,4.549511067));
#152=CARTESIAN_POINT('',(3.258728324,9.436078858,4.586664341));
#153=CARTESIAN_POINT('',(3.206461732,9.297908002,4.623817615));
#154=CARTESIAN_POINT('',(3.162816351,9.159455035,4.668101091));
#155=CARTESIAN_POINT('',(3.127090624,9.021131665,4.720099958));
#156=CARTESIAN_POINT('',(3.091364898,8.882808296,4.772098826));
#157=CARTESIAN_POINT('',(3.063441487,8.743682914,4.832283887));
#158=CARTESIAN_POINT('',(3.0432366,8.607380297,4.899791454));
#159=CARTESIAN_POINT('',(3.023031713,8.47107768,4.96729902));
#160=CARTESIAN_POINT('',(3.010550923,8.338518399,5.041538195));
#161=CARTESIAN_POINT('',(3.004463493,8.209757948,5.122476669));
#162=CARTESIAN_POINT('',(2.992288633,7.952237046,5.284353617));
#163=CARTESIAN_POINT('',(3.00615006,7.707855117,5.475281013));
#164=CARTESIAN_POINT('',(3.035524933,7.488926582,5.685359622));
#165=CARTESIAN_POINT('',(3.050212369,7.379462314,5.790398927));
#166=CARTESIAN_POINT('',(3.068720833,7.275796548,5.900471329));
#167=CARTESIAN_POINT('',(3.089852531,7.177787235,6.015622705));
#168=CARTESIAN_POINT('',(3.110984229,7.079777922,6.13077408));
#169=CARTESIAN_POINT('',(3.134872359,6.987036021,6.251616814));
#170=CARTESIAN_POINT('',(3.159864754,6.901309028,6.375799046));
#171=CARTESIAN_POINT('',(3.209849543,6.729855043,6.624163509));
#172=CARTESIAN_POINT('',(3.264211063,6.585450686,6.886072515));
#173=CARTESIAN_POINT('',(3.314082366,6.46713637,7.162703511));
#174=CARTESIAN_POINT('',(3.339018018,6.407979212,7.301019008));
#175=CARTESIAN_POINT('',(3.362966541,6.355166503,7.44390816));
#176=CARTESIAN_POINT('',(3.384356904,6.309960948,7.588365734));
#177=CARTESIAN_POINT('',(3.405747267,6.264755393,7.732823308));
#178=CARTESIAN_POINT('',(3.424590962,6.22707559,7.878729317));
#179=CARTESIAN_POINT('',(3.440117567,6.19677366,8.026122943));
#180=CARTESIAN_POINT('',(3.471170778,6.136169799,8.320910196));
#181=CARTESIAN_POINT('',(3.48875251,6.104823007,8.621622798));
#182=CARTESIAN_POINT('',(3.48887953,6.10459027,8.928894752));
#183=CARTESIAN_POINT('',(3.48900655,6.104357533,9.236166705));
#184=CARTESIAN_POINT('',(3.471529878,6.135497163,9.539311921));
#185=CARTESIAN_POINT('',(3.440460006,6.196105505,9.835228958));
#186=CARTESIAN_POINT('',(3.409390135,6.256713848,10.131145995));
#187=CARTESIAN_POINT('',(3.364196879,6.348309,10.42375905));
#188=CARTESIAN_POINT('',(3.314387387,6.466412955,10.700212149));
#189=CARTESIAN_POINT('',(3.264577896,6.584516911,10.976665248));
#190=CARTESIAN_POINT('',(3.210163627,6.728874923,11.238904361));
#191=CARTESIAN_POINT('',(3.160034049,6.90072849,11.48796781));
#192=CARTESIAN_POINT('',(3.13496926,6.986655273,11.612499535));
#193=CARTESIAN_POINT('',(3.111171865,7.079060349,11.732890381));
#194=CARTESIAN_POINT('',(3.090120931,7.176543342,11.847523229));
#195=CARTESIAN_POINT('',(3.069069997,7.274026335,11.962156077));
#196=CARTESIAN_POINT('',(3.05064532,7.376967335,12.071588301));
#197=CARTESIAN_POINT('',(3.035994203,7.485440665,12.175899819));
#198=CARTESIAN_POINT('',(3.021343085,7.593913996,12.280211338));
#199=CARTESIAN_POINT('',(3.010456235,7.707919281,12.379401275));
#200=CARTESIAN_POINT('',(3.004664006,7.827738271,12.473363191));
#201=CARTESIAN_POINT('',(2.998871777,7.94755726,12.567325106));
#202=CARTESIAN_POINT('',(2.998259292,8.074228654,12.656640685));
#203=CARTESIAN_POINT('',(3.004178408,8.203628721,12.738271668));
#204=CARTESIAN_POINT('',(3.016016641,8.462428854,12.901533634));
#205=CARTESIAN_POINT('',(3.053263134,8.733173984,13.035720883));
#206=CARTESIAN_POINT('',(3.125284145,9.01411107,13.141862181));
#207=CARTESIAN_POINT('',(3.197305156,9.295048157,13.248003479));
#208=CARTESIAN_POINT('',(3.300533783,9.57180086,13.320704611));
#209=CARTESIAN_POINT('',(3.438202072,9.841173633,13.367075365));
#210=CARTESIAN_POINT('',(3.507036217,9.975860019,13.390260743));
#211=CARTESIAN_POINT('',(3.584898171,10.109034467,13.406764124));
#212=CARTESIAN_POINT('',(3.669731486,10.236541868,13.417227787));
#213=CARTESIAN_POINT('',(3.754564802,10.364049269,13.42769145));
#214=CARTESIAN_POINT('',(3.846757366,10.486787871,13.432303993));
#215=CARTESIAN_POINT('',(3.946433144,10.604588525,13.432304006));
#216=B_SPLINE_CURVE_WITH_KNOTS('',3,(#146,#147,#148,#149,#150,#151,#152,#153,#154,#155,#156,#157,#158,#159,#160,#161,#162,#163,#164,#165,#166,#167,#168,#169,#170,#171,
#172,#173,#174,#175,#176,#177,#178,#179,#180,#181,#182,#183,#184,#185,#186,#187,#188,#189,#190,#191,#192,#193,#194,#195,#196,
#197,#198,#199,#200,#201,#202,#203,#204,#205,#206,#207,#208,#209,#210,#211,#212,#213,#214,#215),.UNSPECIFIED.,.F.,.F.,(4,3,3,3,3,3,3,3,3,3,3,3,3,3,3,3,3,3,3,3,3,3,3,4),(0.,0.000911721,0.001367581,0.001823442,0.002279302,0.002735162,0.003646883,0.004102744,0.004558604,0.005470325,0.005926185,0.006382046,0.007293767,0.008205487,0.009117208,0.010028929,0.01048479,0.01094065,0.01139651,0.011852371,0.012764092,0.013675812,0.014131673,0.014587533),.UNSPECIFIED.);
#217=EDGE_CURVE('',#137,#84,#216,.T.);
#218=ORIENTED_EDGE('',*,*,#217,.T.);
#219=ORIENTED_EDGE('',*,*,#91,.T.);
#220=CARTESIAN_POINT('',(0.,10.604588525,13.432304006));
#221=CARTESIAN_POINT('',(0.,1.604601241,13.4323031));
#222=CARTESIAN_POINT('',(0.,1.604595789,4.432315816));
#223=CARTESIAN_POINT('',(0.,10.604583074,4.432304006));
#224=(BOUNDED_CURVE()
B_SPLINE_CURVE(3,(#220,#221,#222,#223),.UNSPECIFIED.,.F.,.F.)
B_SPLINE_CURVE_WITH_KNOTS((4,4),(0.,1.),.UNSPECIFIED.)
CURVE()
GEOMETRIC_REPRESENTATION_ITEM()
RATIONAL_B_SPLINE_CURVE((1.,0.333333804,0.333333804,1.))
REPRESENTATION_ITEM(''));
#225=EDGE_CURVE('',#86,#139,#224,.T.);
#226=ORIENTED_EDGE('',*,*,#225,.T.);
#227=EDGE_LOOP('',(#145,#218,#219,#226));
#228=FACE_BOUND('',#227,.T.);
#229=ADVANCED_FACE('',(#228),#135,.F.);
#230=CARTESIAN_POINT('',(7.,12.854585799,4.432304006));
#231=DIRECTION('',(0.,0.,-1.));
#232=DIRECTION('',(-1.,0.,0.));
#233=AXIS2_PLACEMENT_3D('',#230,#231,#232);
#234=PLANE('',#233);
#235=CARTESIAN_POINT('',(7.,12.020845222,4.432304006));
#236=VERTEX_POINT('',#235);
#237=CARTESIAN_POINT('',(7.,8.020845222,4.432304006));
#238=DIRECTION('',(0.,0.,-1.));
#239=DIRECTION('',(-1.,0.,0.));
#240=AXIS2_PLACEMENT_3D('',#237,#238,#239);
#241=CIRCLE('',#240,4.);
#242=EDGE_CURVE('',#137,#236,#241,.T.);
#243=ORIENTED_EDGE('',*,*,#242,.F.);
#244=ORIENTED_EDGE('',*,*,#144,.T.);
#245=CARTESIAN_POINT('',(0.,15.104588525,4.432304006));
#246=VERTEX_POINT('',#245);
#247=CARTESIAN_POINT('',(0.,15.104588525,4.432304006));
#248=DIRECTION('',(0.,-1.,0.));
#249=VECTOR('',#248,4.500005452);
#250=LINE('',#247,#249);
#251=EDGE_CURVE('',#246,#139,#250,.T.);
#252=ORIENTED_EDGE('',*,*,#251,.F.);
#253=CARTESIAN_POINT('',(7.,15.104588525,4.432304006));
#254=VERTEX_POINT('',#253);
#255=CARTESIAN_POINT('',(7.,15.104588525,4.432304006));
#256=DIRECTION('',(-1.,0.,0.));
#257=VECTOR('',#256,7.);
#258=LINE('',#255,#257);
#259=EDGE_CURVE('',#254,#246,#258,.T.);
#260=ORIENTED_EDGE('',*,*,#259,.F.);
#261=CARTESIAN_POINT('',(7.,15.104588525,4.432304006));
#262=DIRECTION('',(0.,-1.,0.));
#263=VECTOR('',#262,3.083743303);
#264=LINE('',#261,#263);
#265=EDGE_CURVE('',#254,#236,#264,.T.);
#266=ORIENTED_EDGE('',*,*,#265,.T.);
#267=EDGE_LOOP('',(#243,#244,#252,#260,#266));
#268=FACE_BOUND('',#267,.T.);
#269=ADVANCED_FACE('',(#268),#234,.T.);
#270=CARTESIAN_POINT('',(7.,15.104588525,4.433486417));
#271=DIRECTION('',(0.,-1.,0.));
#272=DIRECTION('',(0.,0.,-1.));
#273=AXIS2_PLACEMENT_3D('',#270,#271,#272);
#274=PLANE('',#273);
#275=CARTESIAN_POINT('',(0.,15.104588525,4.434668828));
#276=VERTEX_POINT('',#275);
#277=CARTESIAN_POINT('',(0.,15.104588525,4.432304006));
#278=DIRECTION('',(0.,0.,1.));
#279=VECTOR('',#278,0.002364822);
#280=LINE('',#277,#279);
#281=EDGE_CURVE('',#246,#276,#280,.T.);
#282=ORIENTED_EDGE('',*,*,#281,.T.);
#283=CARTESIAN_POINT('',(7.,15.104588525,4.434668828));
#284=VERTEX_POINT('',#283);
#285=CARTESIAN_POINT('',(7.,15.104588525,4.434668828));
#286=DIRECTION('',(-1.,0.,0.));
#287=VECTOR('',#286,7.);
#288=LINE('',#285,#287);
#289=EDGE_CURVE('',#284,#276,#288,.T.);
#290=ORIENTED_EDGE('',*,*,#289,.F.);
#291=CARTESIAN_POINT('',(7.,15.104588525,4.432304006));
#292=DIRECTION('',(0.,0.,1.));
#293=VECTOR('',#292,0.002364822);
#294=LINE('',#291,#293);
#295=EDGE_CURVE('',#254,#284,#294,.T.);
#296=ORIENTED_EDGE('',*,*,#295,.F.);
#297=ORIENTED_EDGE('',*,*,#259,.T.);
#298=EDGE_LOOP('',(#282,#290,#296,#297));
#299=FACE_BOUND('',#298,.T.);
#300=ADVANCED_FACE('',(#299),#274,.F.);
#301=CARTESIAN_POINT('',(7.,15.001436695,8.933486417));
#302=DIRECTION('',(-1.,0.,0.));
#303=DIRECTION('',(0.,0.,1.));
#304=AXIS2_PLACEMENT_3D('',#301,#302,#303);
#305=CYLINDRICAL_SURFACE('',#304,4.5);
#306=CARTESIAN_POINT('',(0.,15.001436695,13.433486417));
#307=VERTEX_POINT('',#306);
#308=CARTESIAN_POINT('',(7.,15.001436695,13.433486417));
#309=VERTEX_POINT('',#308);
#310=CARTESIAN_POINT('',(0.,15.001436695,13.433486417));
#311=DIRECTION('',(1.,-0.,-0.));
#312=VECTOR('',#311,7.);
#313=LINE('',#310,#312);
#314=EDGE_CURVE('',#307,#309,#313,.T.);
#315=ORIENTED_EDGE('',*,*,#314,.T.);
#316=CARTESIAN_POINT('',(7.,15.001436695,8.933486417));
#317=DIRECTION('',(1.,0.,0.));
#318=DIRECTION('',(0.,0.,-1.));
#319=AXIS2_PLACEMENT_3D('',#316,#317,#318);
#320=CIRCLE('',#319,4.5);
#321=EDGE_CURVE('',#284,#309,#320,.T.);
#322=ORIENTED_EDGE('',*,*,#321,.F.);
#323=ORIENTED_EDGE('',*,*,#289,.T.);
#324=CARTESIAN_POINT('',(0.,15.001436695,8.933486417));
#325=DIRECTION('',(1.,0.,0.));
#326=DIRECTION('',(0.,0.,-1.));
#327=AXIS2_PLACEMENT_3D('',#324,#325,#326);
#328=CIRCLE('',#327,4.5);
#329=EDGE_CURVE('',#276,#307,#328,.T.);
#330=ORIENTED_EDGE('',*,*,#329,.T.);
#331=EDGE_LOOP('',(#315,#322,#323,#330));
#332=FACE_BOUND('',#331,.T.);
#333=ADVANCED_FACE('',(#332),#305,.T.);
#334=CARTESIAN_POINT('',(7.,0.,0.));
#335=DIRECTION('',(1.,0.,0.));
#336=DIRECTION('',(0.,1.,0.));
#337=AXIS2_PLACEMENT_3D('',#334,#335,#336);
#338=PLANE('',#337);
#339=CARTESIAN_POINT('',(7.,15.146426857,6.533304639));
#340=VERTEX_POINT('',#339);
#341=CARTESIAN_POINT('',(7.,15.146426857,9.033304639));
#342=DIRECTION('',(1.,0.,0.));
#343=DIRECTION('',(0.,0.,-1.));
#344=AXIS2_PLACEMENT_3D('',#341,#342,#343);
#345=CIRCLE('',#344,2.5);
#346=EDGE_CURVE('',#340,#340,#345,.T.);
#347=ORIENTED_EDGE('',*,*,#346,.F.);
#348=EDGE_LOOP('',(#347));
#349=FACE_BOUND('',#348,.T.);
#350=CARTESIAN_POINT('',(7.,12.020845222,4.432304006));
#351=DIRECTION('',(0.,0.,1.));
#352=VECTOR('',#351,9.);
#353=LINE('',#350,#352);
#354=EDGE_CURVE('',#236,#94,#353,.T.);
#355=ORIENTED_EDGE('',*,*,#354,.F.);
#356=ORIENTED_EDGE('',*,*,#265,.F.);
#357=ORIENTED_EDGE('',*,*,#295,.T.);
#358=ORIENTED_EDGE('',*,*,#321,.T.);
#359=CARTESIAN_POINT('',(7.,15.001436695,8.933486417));
#360=DIRECTION('',(1.,0.,0.));
#361=DIRECTION('',(0.,0.,-1.));
#362=AXIS2_PLACEMENT_3D('',#359,#360,#361);
#363=CIRCLE('',#362,4.5);
#364=EDGE_CURVE('',#309,#103,#363,.T.);
#365=ORIENTED_EDGE('',*,*,#364,.T.);
#366=ORIENTED_EDGE('',*,*,#108,.T.);
#367=EDGE_LOOP('',(#355,#356,#357,#358,#365,#366));
#368=FACE_BOUND('',#367,.T.);
#369=ADVANCED_FACE('',(#349,#368),#338,.T.);
#370=CARTESIAN_POINT('',(0.,0.,0.));
#371=DIRECTION('',(1.,0.,0.));
#372=DIRECTION('',(0.,1.,0.));
#373=AXIS2_PLACEMENT_3D('',#370,#371,#372);
#374=PLANE('',#373);
#375=ORIENTED_EDGE('',*,*,#49,.F.);
#376=ORIENTED_EDGE('',*,*,#56,.F.);
#377=EDGE_LOOP('',(#375,#376));
#378=FACE_BOUND('',#377,.T.);
#379=ORIENTED_EDGE('',*,*,#122,.F.);
#380=CARTESIAN_POINT('',(0.,15.001436695,8.933486417));
#381=DIRECTION('',(1.,0.,0.));
#382=DIRECTION('',(0.,0.,-1.));
#383=AXIS2_PLACEMENT_3D('',#380,#381,#382);
#384=CIRCLE('',#383,4.5);
#385=EDGE_CURVE('',#307,#111,#384,.T.);
#386=ORIENTED_EDGE('',*,*,#385,.F.);
#387=ORIENTED_EDGE('',*,*,#329,.F.);
#388=ORIENTED_EDGE('',*,*,#281,.F.);
#389=ORIENTED_EDGE('',*,*,#251,.T.);
#390=ORIENTED_EDGE('',*,*,#225,.F.);
#391=EDGE_LOOP('',(#379,#386,#387,#388,#389,#390));
#392=FACE_BOUND('',#391,.T.);
#393=ADVANCED_FACE('',(#378,#392),#374,.F.);
#394=CARTESIAN_POINT('',(7.,8.020845222,-33.));
#395=DIRECTION('',(0.,0.,1.));
#396=DIRECTION('',(1.,0.,-0.));
#397=AXIS2_PLACEMENT_3D('',#394,#395,#396);
#398=CYLINDRICAL_SURFACE('',#397,4.);
#399=ORIENTED_EDGE('',*,*,#217,.F.);
#400=ORIENTED_EDGE('',*,*,#242,.T.);
#401=ORIENTED_EDGE('',*,*,#354,.T.);
#402=ORIENTED_EDGE('',*,*,#100,.F.);
#403=EDGE_LOOP('',(#399,#400,#401,#402));
#404=FACE_BOUND('',#403,.T.);
#405=ADVANCED_FACE('',(#404),#398,.F.);
#406=CARTESIAN_POINT('',(5.,15.146426857,9.033304639));
#407=DIRECTION('',(1.,0.,0.));
#408=DIRECTION('',(0.,0.,-1.));
#409=AXIS2_PLACEMENT_3D('',#406,#407,#408);
#410=CYLINDRICAL_SURFACE('',#409,2.5);
#411=CARTESIAN_POINT('',(5.,15.146426857,6.533304639));
#412=VERTEX_POINT('',#411);
#413=CARTESIAN_POINT('',(7.,15.146426857,6.533304639));
#414=DIRECTION('',(-1.,-0.,0.));
#415=VECTOR('',#414,2.);
#416=LINE('',#413,#415);
#417=EDGE_CURVE('',#340,#412,#416,.T.);
#418=ORIENTED_EDGE('',*,*,#417,.F.);
#419=ORIENTED_EDGE('',*,*,#346,.T.);
#420=ORIENTED_EDGE('',*,*,#417,.T.);
#421=CARTESIAN_POINT('',(5.,15.146426857,9.033304639));
#422=DIRECTION('',(1.,0.,0.));
#423=DIRECTION('',(0.,0.,-1.));
#424=AXIS2_PLACEMENT_3D('',#421,#422,#423);
#425=CIRCLE('',#424,2.5);
#426=EDGE_CURVE('',#412,#412,#425,.T.);
#427=ORIENTED_EDGE('',*,*,#426,.F.);
#428=EDGE_LOOP('',(#418,#419,#420,#427));
#429=FACE_BOUND('',#428,.T.);
#430=ADVANCED_FACE('',(#429),#410,.F.);
#431=CARTESIAN_POINT('',(5.,0.,0.));
#432=DIRECTION('',(1.,0.,0.));
#433=DIRECTION('',(0.,1.,0.));
#434=AXIS2_PLACEMENT_3D('',#431,#432,#433);
#435=PLANE('',#434);
#436=ORIENTED_EDGE('',*,*,#66,.F.);
#437=ORIENTED_EDGE('',*,*,#73,.F.);
#438=EDGE_LOOP('',(#436,#437));
#439=FACE_BOUND('',#438,.T.);
#440=ORIENTED_EDGE('',*,*,#426,.T.);
#441=EDGE_LOOP('',(#440));
#442=FACE_BOUND('',#441,.T.);
#443=ADVANCED_FACE('',(#439,#442),#435,.T.);
#444=CARTESIAN_POINT('',(7.,15.001436695,8.933486417));
#445=DIRECTION('',(-1.,0.,0.));
#446=DIRECTION('',(0.,0.,1.));
#447=AXIS2_PLACEMENT_3D('',#444,#445,#446);
#448=CYLINDRICAL_SURFACE('',#447,4.5);
#449=ORIENTED_EDGE('',*,*,#314,.F.);
#450=ORIENTED_EDGE('',*,*,#385,.T.);
#451=ORIENTED_EDGE('',*,*,#116,.F.);
#452=ORIENTED_EDGE('',*,*,#364,.F.);
#453=EDGE_LOOP('',(#449,#450,#451,#452));
#454=FACE_BOUND('',#453,.T.);
#455=ADVANCED_FACE('',(#454),#448,.T.);
#456=CLOSED_SHELL('',(#77,#126,#229,#269,#300,#333,#369,#393,#405,#430,#443,#455));
#457=MANIFOLD_SOLID_BREP('Corps 02',#456);
#458=COLOUR_RGB('',0.529411793,0.152941182,0.184313729);
#459=FILL_AREA_STYLE_COLOUR('',#458);
#460=FILL_AREA_STYLE('',(#459));
#461=SURFACE_STYLE_FILL_AREA(#460);
#462=SURFACE_SIDE_STYLE('',(#461));
#463=SURFACE_STYLE_USAGE(.BOTH.,#462);
#464=PRESENTATION_STYLE_ASSIGNMENT((#463));
#26=STYLED_ITEM('',(#464),#457);
#16=SHAPE_REPRESENTATION('/var/mobile/Containers/Data/Application/27846B57-8B49-44E1-BDDF-7DFC426027F9/Documents/82A62986-6FBC-434D-9E0D-07E46670FF81.tmp',(#15),#10);
#17=ADVANCED_BREP_SHAPE_REPRESENTATION('/var/mobile/Containers/Data/Application/27846B57-8B49-44E1-BDDF-7DFC426027F9/Documents/82A62986-6FBC-434D-9E0D-07E46670FF81.tmp',(#457),#10);
#472=SHAPE_REPRESENTATION_RELATIONSHIP('','',#16,#17);
#473=APPLICATION_CONTEXT('configuration controlled 3D design of mechanical parts and assemblies');
#474=APPLICATION_PROTOCOL_DEFINITION('international standard','configuration_control_3d_design_ed2_mim',2004,#473);
#475=PRODUCT_CONTEXT('',#473,'mechanical');
#476=PRODUCT_DEFINITION_CONTEXT('part definition',#473,'design');
#24=PRODUCT('/var/mobile/Containers/Data/Application/27846B57-8B49-44E1-BDDF-7DFC426027F9/Documents/82A62986-6FBC-434D-9E0D-07E46670FF81.tmp','/var/mobile/Containers/Data/Application/27846B57-8B49-44E1-BDDF-7DFC426027F9/Documents/82A62986-6FBC-434D-9E0D-07E46670FF81.tmp','',(#475));
#477=PRODUCT_RELATED_PRODUCT_CATEGORY('part','',(#24));
#478=PRODUCT_DEFINITION_FORMATION_WITH_SPECIFIED_SOURCE('','',#24,.NOT_KNOWN.);
#25=PRODUCT_DEFINITION('design','',#478,#476);
#23=PRODUCT_DEFINITION_SHAPE('','',#25);
#479=SHAPE_DEFINITION_REPRESENTATION(#23,#16);
#11=DRAUGHTING_MODEL('',(),#10);
#1=MECHANICAL_DESIGN_GEOMETRIC_PRESENTATION_REPRESENTATION('',(#26),#10);
ENDSEC;
END-ISO-10303-21;
