ISO-10303-21;
HEADER;
FILE_DESCRIPTION(('CATIA V5 STEP Exchange'),'2;1');

FILE_NAME('H:\\CATIA\\Armes\\Dummy\\9x19mm.stp','2020-11-30T12:04:34+00:00',('none'),('none'),'CATIA Version 5 Release 18 GA (IN-10)','CATIA V5 STEP AP203','none');

FILE_SCHEMA(('CONFIG_CONTROL_DESIGN'));

ENDSEC;
/* file written by CATIA V5R18 */
DATA;
#5=PRODUCT('9x19mm','','',(#2)) ;
#1=APPLICATION_CONTEXT('configuration controlled 3D design of mechanical parts and assemblies') ;
#14=PRODUCT_DEFINITION(' ',' ',#6,#3) ;
#16=SECURITY_CLASSIFICATION(' ',' ',#15) ;
#15=SECURITY_CLASSIFICATION_LEVEL('unclassified') ;
#47=CARTESIAN_POINT(' ',(0.,0.,0.)) ;
#52=CARTESIAN_POINT('Axis2P3D Location',(0.,0.,3.01036297108)) ;
#57=CARTESIAN_POINT('Line Origine',(-0.767884741654,-0.419497346279,2.50518148554)) ;
#61=CARTESIAN_POINT('Vertex',(2.92293709866E-016,1.59680781466E-016,3.01036297108)) ;
#63=CARTESIAN_POINT('Vertex',(-1.53576948331,-0.838994692557,2.)) ;
#66=CARTESIAN_POINT('Axis2P3D Location',(0.,0.,2.)) ;
#70=CARTESIAN_POINT('Vertex',(1.53576948331,0.838994692557,2.)) ;
#73=CARTESIAN_POINT('Line Origine',(0.767884741654,0.419497346279,2.50518148554)) ;
#85=CARTESIAN_POINT('Control Point',(0.,4.49,19.)) ;
#86=CARTESIAN_POINT('Control Point',(0.,4.49,22.3457961761)) ;
#87=CARTESIAN_POINT('Control Point',(0.,3.93766263183,25.6947140018)) ;
#88=CARTESIAN_POINT('Control Point',(0.,2.8224662787,28.3398902069)) ;
#89=CARTESIAN_POINT('Control Point',(0.,1.41057510146,29.65)) ;
#90=CARTESIAN_POINT('Control Point',(0.,3.10862446895E-015,29.65)) ;
#91=CARTESIAN_POINT('Axis1P Location',(0.,0.,14.8249999993)) ;
#96=CARTESIAN_POINT('Control Point',(-2.15262066833,3.94034570289,19.)) ;
#97=CARTESIAN_POINT('Control Point',(-2.15262066833,3.94034570289,22.3457961761)) ;
#98=CARTESIAN_POINT('Control Point',(-1.88781602811,3.45562406031,25.6947140018)) ;
#99=CARTESIAN_POINT('Control Point',(-1.35316241586,2.47694718771,28.3398902069)) ;
#100=CARTESIAN_POINT('Control Point',(-0.67626572776,1.23789611128,29.65)) ;
#101=CARTESIAN_POINT('Control Point',(-1.99840144433E-015,2.6645352591E-015,29.65)) ;
#102=CARTESIAN_POINT('Vertex',(-2.15262066833,3.94034570289,19.)) ;
#104=CARTESIAN_POINT('Vertex',(-1.68725778412E-015,3.08850465719E-015,29.65)) ;
#108=CARTESIAN_POINT('Control Point',(2.15262066833,-3.94034570289,19.)) ;
#109=CARTESIAN_POINT('Control Point',(2.15262066833,-3.94034570289,22.3457961761)) ;
#110=CARTESIAN_POINT('Control Point',(1.88781602811,-3.45562406031,25.6947140018)) ;
#111=CARTESIAN_POINT('Control Point',(1.35316241586,-2.47694718771,28.3398902069)) ;
#112=CARTESIAN_POINT('Control Point',(0.67626572776,-1.23789611128,29.65)) ;
#113=CARTESIAN_POINT('Control Point',(1.55431223448E-015,-3.10862446895E-015,29.65)) ;
#114=CARTESIAN_POINT('Vertex',(2.15262066833,-3.94034570289,19.)) ;
#117=CARTESIAN_POINT('Axis2P3D Location',(0.,0.,19.)) ;
#129=CARTESIAN_POINT('Control Point',(0.,4.49,19.)) ;
#130=CARTESIAN_POINT('Control Point',(0.,4.49,22.3457961761)) ;
#131=CARTESIAN_POINT('Control Point',(0.,3.93766263183,25.6947140018)) ;
#132=CARTESIAN_POINT('Control Point',(0.,2.8224662787,28.3398902069)) ;
#133=CARTESIAN_POINT('Control Point',(0.,1.41057510146,29.65)) ;
#134=CARTESIAN_POINT('Control Point',(0.,3.10862446895E-015,29.65)) ;
#135=CARTESIAN_POINT('Axis1P Location',(0.,0.,14.8249999993)) ;
#139=CARTESIAN_POINT('Axis2P3D Location',(0.,0.,19.)) ;
#150=CARTESIAN_POINT('Axis2P3D Location',(0.,4.8,19.)) ;
#155=CARTESIAN_POINT('Axis2P3D Location',(0.,0.,19.)) ;
#159=CARTESIAN_POINT('Vertex',(2.3012425853,-4.21239629707,19.)) ;
#161=CARTESIAN_POINT('Vertex',(-2.3012425853,4.21239629707,19.)) ;
#164=CARTESIAN_POINT('Axis2P3D Location',(0.,0.,19.)) ;
#178=CARTESIAN_POINT('Axis2P3D Location',(0.,0.,19.)) ;
#183=CARTESIAN_POINT('Line Origine',(-2.334802373,4.27382707641,11.0034518119)) ;
#187=CARTESIAN_POINT('Vertex',(-2.3683621607,4.33525785574,3.00690362381)) ;
#190=CARTESIAN_POINT('Line Origine',(2.334802373,-4.27382707641,11.0034518119)) ;
#194=CARTESIAN_POINT('Vertex',(2.3683621607,-4.33525785574,3.00690362381)) ;
#197=CARTESIAN_POINT('Axis2P3D Location',(0.,0.,3.00690362381)) ;
#209=CARTESIAN_POINT('Axis2P3D Location',(0.,0.,3.00690362381)) ;
#221=CARTESIAN_POINT('Axis2P3D Location',(0.,0.,2.2)) ;
#226=CARTESIAN_POINT('Line Origine',(-2.23292444605,4.087340782,2.6034518119)) ;
#230=CARTESIAN_POINT('Vertex',(-2.09748673139,3.83942370827,2.2)) ;
#233=CARTESIAN_POINT('Line Origine',(2.23292444605,-4.087340782,2.6034518119)) ;
#237=CARTESIAN_POINT('Vertex',(2.09748673139,-3.83942370827,2.2)) ;
#240=CARTESIAN_POINT('Axis2P3D Location',(0.,0.,2.2)) ;
#252=CARTESIAN_POINT('Axis2P3D Location',(0.,0.,2.2)) ;
#264=CARTESIAN_POINT('Axis2P3D Location',(0.,0.,14.8249999993)) ;
#269=CARTESIAN_POINT('Line Origine',(-2.09748673139,3.83942370827,1.7)) ;
#273=CARTESIAN_POINT('Vertex',(-2.09748673139,3.83942370827,1.2)) ;
#276=CARTESIAN_POINT('Line Origine',(2.09748673139,-3.83942370827,1.7)) ;
#280=CARTESIAN_POINT('Vertex',(2.09748673139,-3.83942370827,1.2)) ;
#283=CARTESIAN_POINT('Axis2P3D Location',(0.,0.,1.2)) ;
#295=CARTESIAN_POINT('Axis2P3D Location',(0.,0.,1.2)) ;
#307=CARTESIAN_POINT('Axis2P3D Location',(0.,4.95,1.2)) ;
#312=CARTESIAN_POINT('Axis2P3D Location',(0.,0.,1.2)) ;
#316=CARTESIAN_POINT('Vertex',(2.37315641609,-4.34403368136,1.2)) ;
#318=CARTESIAN_POINT('Vertex',(-2.37315641609,4.34403368136,1.2)) ;
#321=CARTESIAN_POINT('Axis2P3D Location',(0.,0.,1.2)) ;
#335=CARTESIAN_POINT('Axis2P3D Location',(0.,0.,14.8249999993)) ;
#340=CARTESIAN_POINT('Line Origine',(-2.37315641609,4.34403368136,0.75)) ;
#344=CARTESIAN_POINT('Vertex',(-2.37315641609,4.34403368136,0.3)) ;
#347=CARTESIAN_POINT('Line Origine',(2.37315641609,-4.34403368136,0.75)) ;
#351=CARTESIAN_POINT('Vertex',(2.37315641609,-4.34403368136,0.3)) ;
#354=CARTESIAN_POINT('Axis2P3D Location',(0.,0.,0.3)) ;
#366=CARTESIAN_POINT('Axis2P3D Location',(0.,0.,0.3)) ;
#378=CARTESIAN_POINT('Axis2P3D Location',(0.,0.,0.)) ;
#383=CARTESIAN_POINT('Line Origine',(-2.3012425853,4.21239629707,0.15)) ;
#387=CARTESIAN_POINT('Vertex',(-2.22932875451,4.08075891279,0.)) ;
#390=CARTESIAN_POINT('Line Origine',(2.3012425853,-4.21239629707,0.15)) ;
#394=CARTESIAN_POINT('Vertex',(2.22932875451,-4.08075891279,0.)) ;
#397=CARTESIAN_POINT('Axis2P3D Location',(0.,0.,0.)) ;
#409=CARTESIAN_POINT('Axis2P3D Location',(0.,0.,0.)) ;
#421=CARTESIAN_POINT('Axis2P3D Location',(0.,0.,0.)) ;
#430=CARTESIAN_POINT('Axis2P3D Location',(-1.11022302463E-016,-2.22044604925E-016,0.)) ;
#434=CARTESIAN_POINT('Vertex',(-1.53576948331,-0.838994692557,2.77555756156E-017)) ;
#436=CARTESIAN_POINT('Vertex',(1.53576948331,0.838994692557,2.77555756156E-017)) ;
#439=CARTESIAN_POINT('Axis2P3D Location',(1.11022302463E-016,2.22044604925E-016,0.)) ;
#449=CARTESIAN_POINT('Axis2P3D Location',(0.,0.,0.1)) ;
#454=CARTESIAN_POINT('Line Origine',(-1.53576948331,-0.838994692557,0.844999999995)) ;
#459=CARTESIAN_POINT('Axis2P3D Location',(0.,0.,2.)) ;
#464=CARTESIAN_POINT('Line Origine',(1.53576948331,0.838994692557,0.844999999995)) ;
#492=CARTESIAN_POINT('Esquisse.2',(0.,0.,0.)) ;
#53=DIRECTION('Axis2P3D Direction',(0.,-0.,-1.)) ;
#54=DIRECTION('Axis2P3D XDirection',(0.87758256189,0.479425538604,0.)) ;
#58=DIRECTION('Vector Direction',(-0.760008792515,-0.415194695654,-0.5)) ;
#67=DIRECTION('Axis2P3D Direction',(0.,-0.,-1.)) ;
#74=DIRECTION('Vector Direction',(0.760008792515,0.415194695654,-0.5)) ;
#92=DIRECTION('Axis1P Direction',(0.,0.,1.)) ;
#118=DIRECTION('Axis2P3D Direction',(0.,0.,1.)) ;
#136=DIRECTION('Axis1P Direction',(0.,0.,1.)) ;
#140=DIRECTION('Axis2P3D Direction',(0.,0.,1.)) ;
#151=DIRECTION('Axis2P3D Direction',(0.,0.,1.)) ;
#152=DIRECTION('Axis2P3D XDirection',(1.,0.,0.)) ;
#156=DIRECTION('Axis2P3D Direction',(0.,0.,1.)) ;
#165=DIRECTION('Axis2P3D Direction',(0.,0.,1.)) ;
#179=DIRECTION('Axis2P3D Direction',(-0.,-0.,-1.)) ;
#180=DIRECTION('Axis2P3D XDirection',(-0.479425538604,0.87758256189,0.)) ;
#184=DIRECTION('Vector Direction',(-0.00419662348889,0.00768186776906,-0.999961687896)) ;
#191=DIRECTION('Vector Direction',(0.00419662348889,-0.00768186776906,-0.999961687896)) ;
#198=DIRECTION('Axis2P3D Direction',(0.,0.,-1.)) ;
#210=DIRECTION('Axis2P3D Direction',(0.,0.,-1.)) ;
#222=DIRECTION('Axis2P3D Direction',(0.,0.,1.)) ;
#223=DIRECTION('Axis2P3D XDirection',(-0.479425538604,0.87758256189,0.)) ;
#227=DIRECTION('Vector Direction',(-0.274987191928,0.503360678453,0.819152044289)) ;
#234=DIRECTION('Vector Direction',(0.274987191928,-0.503360678453,0.819152044289)) ;
#241=DIRECTION('Axis2P3D Direction',(0.,0.,1.)) ;
#253=DIRECTION('Axis2P3D Direction',(0.,0.,1.)) ;
#265=DIRECTION('Axis2P3D Direction',(0.,0.,1.)) ;
#266=DIRECTION('Axis2P3D XDirection',(-0.479425538604,0.87758256189,0.)) ;
#270=DIRECTION('Vector Direction',(0.,0.,1.)) ;
#277=DIRECTION('Vector Direction',(0.,0.,1.)) ;
#284=DIRECTION('Axis2P3D Direction',(0.,0.,1.)) ;
#296=DIRECTION('Axis2P3D Direction',(0.,0.,1.)) ;
#308=DIRECTION('Axis2P3D Direction',(0.,0.,1.)) ;
#309=DIRECTION('Axis2P3D XDirection',(1.,0.,0.)) ;
#313=DIRECTION('Axis2P3D Direction',(0.,0.,1.)) ;
#322=DIRECTION('Axis2P3D Direction',(0.,0.,1.)) ;
#336=DIRECTION('Axis2P3D Direction',(0.,0.,1.)) ;
#337=DIRECTION('Axis2P3D XDirection',(-0.479425538604,0.87758256189,0.)) ;
#341=DIRECTION('Vector Direction',(0.,0.,1.)) ;
#348=DIRECTION('Vector Direction',(0.,0.,1.)) ;
#355=DIRECTION('Axis2P3D Direction',(0.,0.,1.)) ;
#367=DIRECTION('Axis2P3D Direction',(0.,0.,1.)) ;
#379=DIRECTION('Axis2P3D Direction',(0.,0.,1.)) ;
#380=DIRECTION('Axis2P3D XDirection',(-0.479425538604,0.87758256189,0.)) ;
#384=DIRECTION('Vector Direction',(-0.339005049421,0.620544580564,0.707106781187)) ;
#391=DIRECTION('Vector Direction',(0.339005049421,-0.620544580564,0.707106781187)) ;
#398=DIRECTION('Axis2P3D Direction',(0.,0.,1.)) ;
#410=DIRECTION('Axis2P3D Direction',(0.,0.,1.)) ;
#422=DIRECTION('Axis2P3D Direction',(0.,0.,1.)) ;
#423=DIRECTION('Axis2P3D XDirection',(1.,0.,0.)) ;
#431=DIRECTION('Axis2P3D Direction',(0.,0.,1.)) ;
#440=DIRECTION('Axis2P3D Direction',(0.,0.,1.)) ;
#450=DIRECTION('Axis2P3D Direction',(-0.,0.,1.)) ;
#451=DIRECTION('Axis2P3D XDirection',(0.87758256189,0.479425538604,0.)) ;
#455=DIRECTION('Vector Direction',(0.,0.,1.)) ;
#460=DIRECTION('Axis2P3D Direction',(-0.,0.,1.)) ;
#465=DIRECTION('Vector Direction',(0.,0.,1.)) ;
#48=AXIS2_PLACEMENT_3D(' ',#47,$,$) ;
#55=AXIS2_PLACEMENT_3D('Cone Axis2P3D',#52,#53,#54) ;
#68=AXIS2_PLACEMENT_3D('Circle Axis2P3D',#66,#67,$) ;
#119=AXIS2_PLACEMENT_3D('Circle Axis2P3D',#117,#118,$) ;
#141=AXIS2_PLACEMENT_3D('Circle Axis2P3D',#139,#140,$) ;
#153=AXIS2_PLACEMENT_3D('Plane Axis2P3D',#150,#151,#152) ;
#157=AXIS2_PLACEMENT_3D('Circle Axis2P3D',#155,#156,$) ;
#166=AXIS2_PLACEMENT_3D('Circle Axis2P3D',#164,#165,$) ;
#181=AXIS2_PLACEMENT_3D('Cone Axis2P3D',#178,#179,#180) ;
#199=AXIS2_PLACEMENT_3D('Circle Axis2P3D',#197,#198,$) ;
#211=AXIS2_PLACEMENT_3D('Circle Axis2P3D',#209,#210,$) ;
#224=AXIS2_PLACEMENT_3D('Cone Axis2P3D',#221,#222,#223) ;
#242=AXIS2_PLACEMENT_3D('Circle Axis2P3D',#240,#241,$) ;
#254=AXIS2_PLACEMENT_3D('Circle Axis2P3D',#252,#253,$) ;
#267=AXIS2_PLACEMENT_3D('Cylinder Axis2P3D',#264,#265,#266) ;
#285=AXIS2_PLACEMENT_3D('Circle Axis2P3D',#283,#284,$) ;
#297=AXIS2_PLACEMENT_3D('Circle Axis2P3D',#295,#296,$) ;
#310=AXIS2_PLACEMENT_3D('Plane Axis2P3D',#307,#308,#309) ;
#314=AXIS2_PLACEMENT_3D('Circle Axis2P3D',#312,#313,$) ;
#323=AXIS2_PLACEMENT_3D('Circle Axis2P3D',#321,#322,$) ;
#338=AXIS2_PLACEMENT_3D('Cylinder Axis2P3D',#335,#336,#337) ;
#356=AXIS2_PLACEMENT_3D('Circle Axis2P3D',#354,#355,$) ;
#368=AXIS2_PLACEMENT_3D('Circle Axis2P3D',#366,#367,$) ;
#381=AXIS2_PLACEMENT_3D('Cone Axis2P3D',#378,#379,#380) ;
#399=AXIS2_PLACEMENT_3D('Circle Axis2P3D',#397,#398,$) ;
#411=AXIS2_PLACEMENT_3D('Circle Axis2P3D',#409,#410,$) ;
#424=AXIS2_PLACEMENT_3D('Plane Axis2P3D',#421,#422,#423) ;
#432=AXIS2_PLACEMENT_3D('Circle Axis2P3D',#430,#431,$) ;
#441=AXIS2_PLACEMENT_3D('Circle Axis2P3D',#439,#440,$) ;
#452=AXIS2_PLACEMENT_3D('Cylinder Axis2P3D',#449,#450,#451) ;
#461=AXIS2_PLACEMENT_3D('Circle Axis2P3D',#459,#460,$) ;
#40=PRODUCT_DEFINITION_SHAPE(' ',' ',#14) ;
#31=APPROVAL_PERSON_ORGANIZATION(#25,#21,#19) ;
#25=PERSON_AND_ORGANIZATION(#22,#23) ;
#22=PERSON(' ',' ',' ',$,$,$) ;
#23=ORGANIZATION(' ',' ',' ') ;
#21=APPROVAL(#20,' ') ;
#20=APPROVAL_STATUS('not_yet_approved') ;
#19=APPROVAL_ROLE('APPROVER') ;
#13=DATE_AND_TIME(#11,#12) ;
#12=LOCAL_TIME(13,4,34.,#10) ;
#10=COORDINATED_UNIVERSAL_TIME_OFFSET(0,0,.AHEAD.) ;
#79=ORIENTED_EDGE('',*,*,#65,.T.) ;
#80=ORIENTED_EDGE('',*,*,#72,.F.) ;
#81=ORIENTED_EDGE('',*,*,#77,.F.) ;
#123=ORIENTED_EDGE('',*,*,#106,.T.) ;
#124=ORIENTED_EDGE('',*,*,#116,.F.) ;
#125=ORIENTED_EDGE('',*,*,#121,.T.) ;
#145=ORIENTED_EDGE('',*,*,#116,.T.) ;
#146=ORIENTED_EDGE('',*,*,#106,.F.) ;
#147=ORIENTED_EDGE('',*,*,#143,.T.) ;
#170=ORIENTED_EDGE('',*,*,#163,.T.) ;
#171=ORIENTED_EDGE('',*,*,#168,.T.) ;
#174=ORIENTED_EDGE('',*,*,#143,.F.) ;
#175=ORIENTED_EDGE('',*,*,#121,.F.) ;
#203=ORIENTED_EDGE('',*,*,#189,.T.) ;
#204=ORIENTED_EDGE('',*,*,#163,.F.) ;
#205=ORIENTED_EDGE('',*,*,#196,.F.) ;
#206=ORIENTED_EDGE('',*,*,#201,.T.) ;
#215=ORIENTED_EDGE('',*,*,#196,.T.) ;
#216=ORIENTED_EDGE('',*,*,#168,.F.) ;
#217=ORIENTED_EDGE('',*,*,#189,.F.) ;
#218=ORIENTED_EDGE('',*,*,#213,.T.) ;
#246=ORIENTED_EDGE('',*,*,#232,.T.) ;
#247=ORIENTED_EDGE('',*,*,#201,.F.) ;
#248=ORIENTED_EDGE('',*,*,#239,.F.) ;
#249=ORIENTED_EDGE('',*,*,#244,.T.) ;
#258=ORIENTED_EDGE('',*,*,#239,.T.) ;
#259=ORIENTED_EDGE('',*,*,#213,.F.) ;
#260=ORIENTED_EDGE('',*,*,#232,.F.) ;
#261=ORIENTED_EDGE('',*,*,#256,.T.) ;
#289=ORIENTED_EDGE('',*,*,#275,.T.) ;
#290=ORIENTED_EDGE('',*,*,#244,.F.) ;
#291=ORIENTED_EDGE('',*,*,#282,.F.) ;
#292=ORIENTED_EDGE('',*,*,#287,.T.) ;
#301=ORIENTED_EDGE('',*,*,#282,.T.) ;
#302=ORIENTED_EDGE('',*,*,#256,.F.) ;
#303=ORIENTED_EDGE('',*,*,#275,.F.) ;
#304=ORIENTED_EDGE('',*,*,#299,.T.) ;
#327=ORIENTED_EDGE('',*,*,#320,.T.) ;
#328=ORIENTED_EDGE('',*,*,#325,.T.) ;
#331=ORIENTED_EDGE('',*,*,#299,.F.) ;
#332=ORIENTED_EDGE('',*,*,#287,.F.) ;
#360=ORIENTED_EDGE('',*,*,#346,.T.) ;
#361=ORIENTED_EDGE('',*,*,#320,.F.) ;
#362=ORIENTED_EDGE('',*,*,#353,.F.) ;
#363=ORIENTED_EDGE('',*,*,#358,.T.) ;
#372=ORIENTED_EDGE('',*,*,#353,.T.) ;
#373=ORIENTED_EDGE('',*,*,#325,.F.) ;
#374=ORIENTED_EDGE('',*,*,#346,.F.) ;
#375=ORIENTED_EDGE('',*,*,#370,.T.) ;
#403=ORIENTED_EDGE('',*,*,#389,.T.) ;
#404=ORIENTED_EDGE('',*,*,#358,.F.) ;
#405=ORIENTED_EDGE('',*,*,#396,.F.) ;
#406=ORIENTED_EDGE('',*,*,#401,.T.) ;
#415=ORIENTED_EDGE('',*,*,#396,.T.) ;
#416=ORIENTED_EDGE('',*,*,#370,.F.) ;
#417=ORIENTED_EDGE('',*,*,#389,.F.) ;
#418=ORIENTED_EDGE('',*,*,#413,.T.) ;
#427=ORIENTED_EDGE('',*,*,#401,.F.) ;
#428=ORIENTED_EDGE('',*,*,#413,.F.) ;
#445=ORIENTED_EDGE('',*,*,#438,.T.) ;
#446=ORIENTED_EDGE('',*,*,#443,.T.) ;
#470=ORIENTED_EDGE('',*,*,#438,.F.) ;
#471=ORIENTED_EDGE('',*,*,#458,.F.) ;
#472=ORIENTED_EDGE('',*,*,#463,.T.) ;
#473=ORIENTED_EDGE('',*,*,#468,.T.) ;
#477=ORIENTED_EDGE('',*,*,#443,.F.) ;
#478=ORIENTED_EDGE('',*,*,#468,.F.) ;
#479=ORIENTED_EDGE('',*,*,#72,.T.) ;
#480=ORIENTED_EDGE('',*,*,#458,.T.) ;
#484=ORIENTED_EDGE('',*,*,#77,.T.) ;
#485=ORIENTED_EDGE('',*,*,#463,.F.) ;
#486=ORIENTED_EDGE('',*,*,#65,.F.) ;
#176=FACE_BOUND('',#173,.T.) ;
#333=FACE_BOUND('',#330,.T.) ;
#447=FACE_BOUND('',#444,.T.) ;
#51=CLOSED_SHELL('Closed Shell',(#83,#127,#149,#177,#208,#220,#251,#263,#294,#306,#334,#365,#377,#408,#420,#448,#475,#482,#488)) ;
#59=VECTOR('Line Direction',#58,1.) ;
#75=VECTOR('Line Direction',#74,1.) ;
#185=VECTOR('Line Direction',#184,1.) ;
#192=VECTOR('Line Direction',#191,1.) ;
#228=VECTOR('Line Direction',#227,1.) ;
#235=VECTOR('Line Direction',#234,1.) ;
#271=VECTOR('Line Direction',#270,1.) ;
#278=VECTOR('Line Direction',#277,1.) ;
#342=VECTOR('Line Direction',#341,1.) ;
#349=VECTOR('Line Direction',#348,1.) ;
#385=VECTOR('Line Direction',#384,1.) ;
#392=VECTOR('Line Direction',#391,1.) ;
#456=VECTOR('Line Direction',#455,1.) ;
#466=VECTOR('Line Direction',#465,1.) ;
#490=ADVANCED_BREP_SHAPE_REPRESENTATION('NONE',(#489),#46) ;
#49=SHAPE_REPRESENTATION(' ',(#48),#46) ;
#83=ADVANCED_FACE('Corps principal',(#82),#56,.F.) ;
#127=ADVANCED_FACE('Corps principal',(#126),#94,.T.) ;
#149=ADVANCED_FACE('Corps principal',(#148),#138,.T.) ;
#177=ADVANCED_FACE('Corps principal',(#172,#176),#154,.T.) ;
#208=ADVANCED_FACE('Corps principal',(#207),#182,.T.) ;
#220=ADVANCED_FACE('Corps principal',(#219),#182,.T.) ;
#251=ADVANCED_FACE('Corps principal',(#250),#225,.T.) ;
#263=ADVANCED_FACE('Corps principal',(#262),#225,.T.) ;
#294=ADVANCED_FACE('Corps principal',(#293),#268,.T.) ;
#306=ADVANCED_FACE('Corps principal',(#305),#268,.T.) ;
#334=ADVANCED_FACE('Corps principal',(#329,#333),#311,.T.) ;
#365=ADVANCED_FACE('Corps principal',(#364),#339,.T.) ;
#377=ADVANCED_FACE('Corps principal',(#376),#339,.T.) ;
#408=ADVANCED_FACE('Corps principal',(#407),#382,.T.) ;
#420=ADVANCED_FACE('Corps principal',(#419),#382,.T.) ;
#448=ADVANCED_FACE('Corps principal',(#429,#447),#425,.F.) ;
#475=ADVANCED_FACE('Corps principal',(#474),#453,.F.) ;
#482=ADVANCED_FACE('Corps principal',(#481),#453,.F.) ;
#488=ADVANCED_FACE('Corps principal',(#487),#56,.F.) ;
#4=APPLICATION_PROTOCOL_DEFINITION('international standard','config_control_design',1994,#1) ;
#32=APPROVAL_DATE_TIME(#13,#21) ;
#93=AXIS1_PLACEMENT('Revolution Surface Axis1P',#91,#92) ;
#137=AXIS1_PLACEMENT('Revolution Surface Axis1P',#135,#136) ;
#84=B_SPLINE_CURVE_WITH_KNOTS('',5,(#85,#86,#87,#88,#89,#90),.UNSPECIFIED.,.F.,.U.,(6,6),(54.4648206456,72.6197608608),.UNSPECIFIED.) ;
#95=B_SPLINE_CURVE_WITH_KNOTS('',5,(#96,#97,#98,#99,#100,#101),.UNSPECIFIED.,.F.,.U.,(6,6),(54.4648206456,72.6197608608),.UNSPECIFIED.) ;
#107=B_SPLINE_CURVE_WITH_KNOTS('',5,(#108,#109,#110,#111,#112,#113),.UNSPECIFIED.,.F.,.U.,(6,6),(54.4648206456,72.6197608608),.UNSPECIFIED.) ;
#128=B_SPLINE_CURVE_WITH_KNOTS('',5,(#129,#130,#131,#132,#133,#134),.UNSPECIFIED.,.F.,.U.,(6,6),(54.4648206456,72.6197608608),.UNSPECIFIED.) ;
#489=MANIFOLD_SOLID_BREP('Corps principal',#51) ;
#11=CALENDAR_DATE(2020,30,11) ;
#30=CC_DESIGN_APPROVAL(#21,(#16,#6,#14)) ;
#18=CC_DESIGN_DATE_AND_TIME_ASSIGNMENT(#13,#17,(#16)) ;
#29=CC_DESIGN_DATE_AND_TIME_ASSIGNMENT(#13,#28,(#14)) ;
#17=DATE_TIME_ROLE('classification_date') ;
#28=DATE_TIME_ROLE('creation_date') ;
#27=CC_DESIGN_PERSON_AND_ORGANIZATION_ASSIGNMENT(#25,#26,(#16)) ;
#33=CC_DESIGN_PERSON_AND_ORGANIZATION_ASSIGNMENT(#25,#34,(#6)) ;
#35=CC_DESIGN_PERSON_AND_ORGANIZATION_ASSIGNMENT(#25,#36,(#6,#14)) ;
#37=CC_DESIGN_PERSON_AND_ORGANIZATION_ASSIGNMENT(#25,#38,(#5)) ;
#26=PERSON_AND_ORGANIZATION_ROLE('classification_officer') ;
#34=PERSON_AND_ORGANIZATION_ROLE('design_supplier') ;
#36=PERSON_AND_ORGANIZATION_ROLE('creator') ;
#38=PERSON_AND_ORGANIZATION_ROLE('design_owner') ;
#39=CC_DESIGN_SECURITY_CLASSIFICATION(#16,(#6)) ;
#69=CIRCLE('generated circle',#68,1.75) ;
#120=CIRCLE('generated circle',#119,4.49) ;
#142=CIRCLE('generated circle',#141,4.49) ;
#158=CIRCLE('generated circle',#157,4.8) ;
#167=CIRCLE('generated circle',#166,4.8) ;
#200=CIRCLE('generated circle',#199,4.94) ;
#212=CIRCLE('generated circle',#211,4.94) ;
#243=CIRCLE('generated circle',#242,4.375) ;
#255=CIRCLE('generated circle',#254,4.375) ;
#286=CIRCLE('generated circle',#285,4.375) ;
#298=CIRCLE('generated circle',#297,4.375) ;
#315=CIRCLE('generated circle',#314,4.95) ;
#324=CIRCLE('generated circle',#323,4.95) ;
#357=CIRCLE('generated circle',#356,4.95) ;
#369=CIRCLE('generated circle',#368,4.95) ;
#400=CIRCLE('generated circle',#399,4.65) ;
#412=CIRCLE('generated circle',#411,4.65) ;
#433=CIRCLE('generated circle',#432,1.75) ;
#442=CIRCLE('generated circle',#441,1.75) ;
#462=CIRCLE('generated circle',#461,1.75) ;
#56=CONICAL_SURFACE('Cone',#55,3.33066907388E-016,1.0471975512) ;
#182=CONICAL_SURFACE('Cone',#181,4.8,0.00875355346266) ;
#225=CONICAL_SURFACE('Cone',#224,4.375,0.610865238198) ;
#382=CONICAL_SURFACE('Cone',#381,4.65,0.785398163397) ;
#491=SHAPE_REPRESENTATION_RELATIONSHIP(' ',' ',#49,#490) ;
#495=SHAPE_REPRESENTATION_RELATIONSHIP(' ',' ',#49,#493) ;
#268=CYLINDRICAL_SURFACE('generated cylinder',#267,4.375) ;
#339=CYLINDRICAL_SURFACE('generated cylinder',#338,4.95) ;
#453=CYLINDRICAL_SURFACE('generated cylinder',#452,1.75) ;
#3=DESIGN_CONTEXT(' ',#1,'design') ;
#65=EDGE_CURVE('',#62,#64,#60,.T.) ;
#72=EDGE_CURVE('',#71,#64,#69,.F.) ;
#77=EDGE_CURVE('',#62,#71,#76,.T.) ;
#106=EDGE_CURVE('',#103,#105,#95,.T.) ;
#116=EDGE_CURVE('',#115,#105,#107,.T.) ;
#121=EDGE_CURVE('',#115,#103,#120,.T.) ;
#143=EDGE_CURVE('',#103,#115,#142,.T.) ;
#163=EDGE_CURVE('',#160,#162,#158,.T.) ;
#168=EDGE_CURVE('',#162,#160,#167,.T.) ;
#189=EDGE_CURVE('',#188,#162,#186,.F.) ;
#196=EDGE_CURVE('',#195,#160,#193,.F.) ;
#201=EDGE_CURVE('',#195,#188,#200,.F.) ;
#213=EDGE_CURVE('',#188,#195,#212,.F.) ;
#232=EDGE_CURVE('',#231,#188,#229,.T.) ;
#239=EDGE_CURVE('',#238,#195,#236,.T.) ;
#244=EDGE_CURVE('',#238,#231,#243,.T.) ;
#256=EDGE_CURVE('',#231,#238,#255,.T.) ;
#275=EDGE_CURVE('',#274,#231,#272,.T.) ;
#282=EDGE_CURVE('',#281,#238,#279,.T.) ;
#287=EDGE_CURVE('',#281,#274,#286,.T.) ;
#299=EDGE_CURVE('',#274,#281,#298,.T.) ;
#320=EDGE_CURVE('',#317,#319,#315,.T.) ;
#325=EDGE_CURVE('',#319,#317,#324,.T.) ;
#346=EDGE_CURVE('',#345,#319,#343,.T.) ;
#353=EDGE_CURVE('',#352,#317,#350,.T.) ;
#358=EDGE_CURVE('',#352,#345,#357,.T.) ;
#370=EDGE_CURVE('',#345,#352,#369,.T.) ;
#389=EDGE_CURVE('',#388,#345,#386,.T.) ;
#396=EDGE_CURVE('',#395,#352,#393,.T.) ;
#401=EDGE_CURVE('',#395,#388,#400,.T.) ;
#413=EDGE_CURVE('',#388,#395,#412,.T.) ;
#438=EDGE_CURVE('',#435,#437,#433,.T.) ;
#443=EDGE_CURVE('',#437,#435,#442,.T.) ;
#458=EDGE_CURVE('',#64,#435,#457,.F.) ;
#463=EDGE_CURVE('',#64,#71,#462,.T.) ;
#468=EDGE_CURVE('',#71,#437,#467,.F.) ;
#78=EDGE_LOOP('',(#79,#80,#81)) ;
#122=EDGE_LOOP('',(#123,#124,#125)) ;
#144=EDGE_LOOP('',(#145,#146,#147)) ;
#169=EDGE_LOOP('',(#170,#171)) ;
#173=EDGE_LOOP('',(#174,#175)) ;
#202=EDGE_LOOP('',(#203,#204,#205,#206)) ;
#214=EDGE_LOOP('',(#215,#216,#217,#218)) ;
#245=EDGE_LOOP('',(#246,#247,#248,#249)) ;
#257=EDGE_LOOP('',(#258,#259,#260,#261)) ;
#288=EDGE_LOOP('',(#289,#290,#291,#292)) ;
#300=EDGE_LOOP('',(#301,#302,#303,#304)) ;
#326=EDGE_LOOP('',(#327,#328)) ;
#330=EDGE_LOOP('',(#331,#332)) ;
#359=EDGE_LOOP('',(#360,#361,#362,#363)) ;
#371=EDGE_LOOP('',(#372,#373,#374,#375)) ;
#402=EDGE_LOOP('',(#403,#404,#405,#406)) ;
#414=EDGE_LOOP('',(#415,#416,#417,#418)) ;
#426=EDGE_LOOP('',(#427,#428)) ;
#444=EDGE_LOOP('',(#445,#446)) ;
#469=EDGE_LOOP('',(#470,#471,#472,#473)) ;
#476=EDGE_LOOP('',(#477,#478,#479,#480)) ;
#483=EDGE_LOOP('',(#484,#485,#486)) ;
#82=FACE_OUTER_BOUND('',#78,.T.) ;
#126=FACE_OUTER_BOUND('',#122,.T.) ;
#148=FACE_OUTER_BOUND('',#144,.T.) ;
#172=FACE_OUTER_BOUND('',#169,.T.) ;
#207=FACE_OUTER_BOUND('',#202,.T.) ;
#219=FACE_OUTER_BOUND('',#214,.T.) ;
#250=FACE_OUTER_BOUND('',#245,.T.) ;
#262=FACE_OUTER_BOUND('',#257,.T.) ;
#293=FACE_OUTER_BOUND('',#288,.T.) ;
#305=FACE_OUTER_BOUND('',#300,.T.) ;
#329=FACE_OUTER_BOUND('',#326,.T.) ;
#364=FACE_OUTER_BOUND('',#359,.T.) ;
#376=FACE_OUTER_BOUND('',#371,.T.) ;
#407=FACE_OUTER_BOUND('',#402,.T.) ;
#419=FACE_OUTER_BOUND('',#414,.T.) ;
#429=FACE_OUTER_BOUND('',#426,.T.) ;
#474=FACE_OUTER_BOUND('',#469,.T.) ;
#481=FACE_OUTER_BOUND('',#476,.T.) ;
#487=FACE_OUTER_BOUND('',#483,.T.) ;
#494=GEOMETRIC_SET('NONE',(#492)) ;
#493=GEOMETRICALLY_BOUNDED_SURFACE_SHAPE_REPRESENTATION('NONE',(#494),#46) ;
#45=UNCERTAINTY_MEASURE_WITH_UNIT(LENGTH_MEASURE(0.005),#41,'distance_accuracy_value','CONFUSED CURVE UNCERTAINTY') ;
#60=LINE('Line',#57,#59) ;
#76=LINE('Line',#73,#75) ;
#186=LINE('Line',#183,#185) ;
#193=LINE('Line',#190,#192) ;
#229=LINE('Line',#226,#228) ;
#236=LINE('Line',#233,#235) ;
#272=LINE('Line',#269,#271) ;
#279=LINE('Line',#276,#278) ;
#343=LINE('Line',#340,#342) ;
#350=LINE('Line',#347,#349) ;
#386=LINE('Line',#383,#385) ;
#393=LINE('Line',#390,#392) ;
#457=LINE('Line',#454,#456) ;
#467=LINE('Line',#464,#466) ;
#2=MECHANICAL_CONTEXT(' ',#1,'mechanical') ;
#24=PERSONAL_ADDRESS(' ',' ',' ',' ',' ',' ',' ',' ',' ',' ',' ',' ',(#22),' ') ;
#154=PLANE('Plane',#153) ;
#311=PLANE('Plane',#310) ;
#425=PLANE('Plane',#424) ;
#43=PLANE_ANGLE_MEASURE_WITH_UNIT(PLANE_ANGLE_MEASURE(0.0174532925199),#42) ;
#7=PRODUCT_CATEGORY('part',$) ;
#9=PRODUCT_CATEGORY_RELATIONSHIP(' ',' ',#7,#8) ;
#6=PRODUCT_DEFINITION_FORMATION_WITH_SPECIFIED_SOURCE('',' ',#5,.NOT_KNOWN.) ;
#8=PRODUCT_RELATED_PRODUCT_CATEGORY('detail',$,(#5)) ;
#50=SHAPE_DEFINITION_REPRESENTATION(#40,#49) ;
#94=SURFACE_OF_REVOLUTION('Surface of Revolution',#84,#93) ;
#138=SURFACE_OF_REVOLUTION('Surface of Revolution',#128,#137) ;
#62=VERTEX_POINT('',#61) ;
#64=VERTEX_POINT('',#63) ;
#71=VERTEX_POINT('',#70) ;
#103=VERTEX_POINT('',#102) ;
#105=VERTEX_POINT('',#104) ;
#115=VERTEX_POINT('',#114) ;
#160=VERTEX_POINT('',#159) ;
#162=VERTEX_POINT('',#161) ;
#188=VERTEX_POINT('',#187) ;
#195=VERTEX_POINT('',#194) ;
#231=VERTEX_POINT('',#230) ;
#238=VERTEX_POINT('',#237) ;
#274=VERTEX_POINT('',#273) ;
#281=VERTEX_POINT('',#280) ;
#317=VERTEX_POINT('',#316) ;
#319=VERTEX_POINT('',#318) ;
#345=VERTEX_POINT('',#344) ;
#352=VERTEX_POINT('',#351) ;
#388=VERTEX_POINT('',#387) ;
#395=VERTEX_POINT('',#394) ;
#435=VERTEX_POINT('',#434) ;
#437=VERTEX_POINT('',#436) ;
#41=(LENGTH_UNIT()NAMED_UNIT(*)SI_UNIT(.MILLI.,.METRE.)) ;
#42=(NAMED_UNIT(*)PLANE_ANGLE_UNIT()SI_UNIT($,.RADIAN.)) ;
#44=(NAMED_UNIT(*)SI_UNIT($,.STERADIAN.)SOLID_ANGLE_UNIT()) ;
#46=(GEOMETRIC_REPRESENTATION_CONTEXT(3)GLOBAL_UNCERTAINTY_ASSIGNED_CONTEXT((#45))GLOBAL_UNIT_ASSIGNED_CONTEXT((#41,#42,#44))REPRESENTATION_CONTEXT(' ',' ')) ;
ENDSEC;
END-ISO-10303-21;
