ISO-10303-21;
HEADER;
/* Generated by software containing ST-Developer
 * from STEP Tools, Inc. (www.steptools.com) 
 */

FILE_DESCRIPTION(
/* description */ (''),
/* implementation_level */ '2;1');

FILE_NAME(
/* name */ 'G:\\Pi\X\E8ce1.stp',
/* time_stamp */ '2020-11-13T13:10:52+01:00',
/* author */ ('antpo'),
/* organization */ (''),
/* preprocessor_version */ 'ST-DEVELOPER v18',
/* originating_system */ 'Autodesk Inventor 2020',
/* authorisation */ '');

FILE_SCHEMA (('AUTOMOTIVE_DESIGN { 1 0 10303 214 3 1 1 }'));
ENDSEC;

DATA;
#10=MECHANICAL_DESIGN_GEOMETRIC_PRESENTATION_REPRESENTATION('',(#13),#682);
#11=SHAPE_REPRESENTATION_RELATIONSHIP('SRR','None',#689,#12);
#12=ADVANCED_BREP_SHAPE_REPRESENTATION('',(#14),#681);
#13=STYLED_ITEM('',(#698),#14);
#14=MANIFOLD_SOLID_BREP('Solide1',#367);
#15=FACE_BOUND('',#70,.T.);
#16=FACE_BOUND('',#73,.T.);
#17=FACE_BOUND('',#74,.T.);
#18=FACE_BOUND('',#75,.T.);
#19=FACE_BOUND('',#76,.T.);
#20=FACE_BOUND('',#77,.T.);
#21=FACE_BOUND('',#79,.T.);
#22=FACE_BOUND('',#80,.T.);
#23=FACE_BOUND('',#81,.T.);
#24=FACE_BOUND('',#82,.T.);
#25=FACE_BOUND('',#83,.T.);
#26=FACE_BOUND('',#84,.T.);
#27=FACE_BOUND('',#85,.T.);
#28=FACE_BOUND('',#86,.T.);
#29=FACE_BOUND('',#87,.T.);
#30=PLANE('',#392);
#31=PLANE('',#398);
#32=PLANE('',#404);
#33=PLANE('',#410);
#34=PLANE('',#436);
#35=PLANE('',#442);
#36=PLANE('',#443);
#37=FACE_OUTER_BOUND('',#55,.T.);
#38=FACE_OUTER_BOUND('',#56,.T.);
#39=FACE_OUTER_BOUND('',#57,.T.);
#40=FACE_OUTER_BOUND('',#58,.T.);
#41=FACE_OUTER_BOUND('',#59,.T.);
#42=FACE_OUTER_BOUND('',#60,.T.);
#43=FACE_OUTER_BOUND('',#61,.T.);
#44=FACE_OUTER_BOUND('',#62,.T.);
#45=FACE_OUTER_BOUND('',#63,.T.);
#46=FACE_OUTER_BOUND('',#64,.T.);
#47=FACE_OUTER_BOUND('',#65,.T.);
#48=FACE_OUTER_BOUND('',#66,.T.);
#49=FACE_OUTER_BOUND('',#67,.T.);
#50=FACE_OUTER_BOUND('',#68,.T.);
#51=FACE_OUTER_BOUND('',#69,.T.);
#52=FACE_OUTER_BOUND('',#71,.T.);
#53=FACE_OUTER_BOUND('',#72,.T.);
#54=FACE_OUTER_BOUND('',#78,.T.);
#55=EDGE_LOOP('',(#238,#239,#240,#241,#242,#243));
#56=EDGE_LOOP('',(#244,#245));
#57=EDGE_LOOP('',(#246,#247,#248,#249,#250,#251));
#58=EDGE_LOOP('',(#252,#253));
#59=EDGE_LOOP('',(#254,#255,#256,#257,#258,#259));
#60=EDGE_LOOP('',(#260,#261));
#61=EDGE_LOOP('',(#262,#263,#264,#265,#266,#267));
#62=EDGE_LOOP('',(#268,#269));
#63=EDGE_LOOP('',(#270,#271,#272,#273,#274));
#64=EDGE_LOOP('',(#275,#276,#277,#278,#279));
#65=EDGE_LOOP('',(#280,#281,#282,#283,#284));
#66=EDGE_LOOP('',(#285,#286,#287,#288,#289));
#67=EDGE_LOOP('',(#290,#291,#292,#293,#294));
#68=EDGE_LOOP('',(#295,#296,#297,#298,#299,#300));
#69=EDGE_LOOP('',(#301,#302));
#70=EDGE_LOOP('',(#303));
#71=EDGE_LOOP('',(#304,#305,#306,#307,#308,#309));
#72=EDGE_LOOP('',(#310,#311));
#73=EDGE_LOOP('',(#312,#313));
#74=EDGE_LOOP('',(#314,#315));
#75=EDGE_LOOP('',(#316,#317));
#76=EDGE_LOOP('',(#318,#319));
#77=EDGE_LOOP('',(#320,#321));
#78=EDGE_LOOP('',(#322,#323));
#79=EDGE_LOOP('',(#324,#325));
#80=EDGE_LOOP('',(#326,#327));
#81=EDGE_LOOP('',(#328,#329));
#82=EDGE_LOOP('',(#330,#331));
#83=EDGE_LOOP('',(#332));
#84=EDGE_LOOP('',(#333));
#85=EDGE_LOOP('',(#334));
#86=EDGE_LOOP('',(#335));
#87=EDGE_LOOP('',(#336,#337));
#88=LINE('',#578,#99);
#89=LINE('',#589,#100);
#90=LINE('',#600,#101);
#91=LINE('',#611,#102);
#92=LINE('',#622,#103);
#93=LINE('',#630,#104);
#94=LINE('',#638,#105);
#95=LINE('',#646,#106);
#96=LINE('',#654,#107);
#97=LINE('',#662,#108);
#98=LINE('',#673,#109);
#99=VECTOR('',#452,2.067);
#100=VECTOR('',#465,2.067);
#101=VECTOR('',#478,2.067);
#102=VECTOR('',#491,2.067);
#103=VECTOR('',#504,2.067);
#104=VECTOR('',#513,2.067);
#105=VECTOR('',#522,2.067);
#106=VECTOR('',#531,2.067);
#107=VECTOR('',#540,20.);
#108=VECTOR('',#549,30.);
#109=VECTOR('',#562,45.);
#110=CIRCLE('',#388,2.067);
#111=CIRCLE('',#389,2.067);
#112=CIRCLE('',#390,2.067);
#113=CIRCLE('',#391,2.067);
#114=CIRCLE('',#394,2.067);
#115=CIRCLE('',#395,2.067);
#116=CIRCLE('',#396,2.067);
#117=CIRCLE('',#397,2.067);
#118=CIRCLE('',#400,2.067);
#119=CIRCLE('',#401,2.067);
#120=CIRCLE('',#402,2.067);
#121=CIRCLE('',#403,2.067);
#122=CIRCLE('',#406,2.067);
#123=CIRCLE('',#407,2.067);
#124=CIRCLE('',#408,2.067);
#125=CIRCLE('',#409,2.067);
#126=CIRCLE('',#412,2.067);
#127=CIRCLE('',#413,2.067);
#128=CIRCLE('',#414,2.067);
#129=CIRCLE('',#416,2.067);
#130=CIRCLE('',#417,2.067);
#131=CIRCLE('',#418,2.067);
#132=CIRCLE('',#420,2.067);
#133=CIRCLE('',#421,2.067);
#134=CIRCLE('',#422,2.067);
#135=CIRCLE('',#424,2.067);
#136=CIRCLE('',#425,2.067);
#137=CIRCLE('',#426,2.067);
#138=CIRCLE('',#428,20.);
#139=CIRCLE('',#429,20.);
#140=CIRCLE('',#430,20.);
#141=CIRCLE('',#432,30.);
#142=CIRCLE('',#433,30.);
#143=CIRCLE('',#434,30.);
#144=CIRCLE('',#435,30.);
#145=CIRCLE('',#438,45.);
#146=CIRCLE('',#439,45.);
#147=CIRCLE('',#440,45.);
#148=CIRCLE('',#441,45.);
#149=VERTEX_POINT('',#573);
#150=VERTEX_POINT('',#574);
#151=VERTEX_POINT('',#577);
#152=VERTEX_POINT('',#579);
#153=VERTEX_POINT('',#584);
#154=VERTEX_POINT('',#585);
#155=VERTEX_POINT('',#588);
#156=VERTEX_POINT('',#590);
#157=VERTEX_POINT('',#595);
#158=VERTEX_POINT('',#596);
#159=VERTEX_POINT('',#599);
#160=VERTEX_POINT('',#601);
#161=VERTEX_POINT('',#606);
#162=VERTEX_POINT('',#607);
#163=VERTEX_POINT('',#610);
#164=VERTEX_POINT('',#612);
#165=VERTEX_POINT('',#617);
#166=VERTEX_POINT('',#618);
#167=VERTEX_POINT('',#621);
#168=VERTEX_POINT('',#625);
#169=VERTEX_POINT('',#626);
#170=VERTEX_POINT('',#629);
#171=VERTEX_POINT('',#633);
#172=VERTEX_POINT('',#634);
#173=VERTEX_POINT('',#637);
#174=VERTEX_POINT('',#641);
#175=VERTEX_POINT('',#642);
#176=VERTEX_POINT('',#645);
#177=VERTEX_POINT('',#649);
#178=VERTEX_POINT('',#650);
#179=VERTEX_POINT('',#653);
#180=VERTEX_POINT('',#657);
#181=VERTEX_POINT('',#658);
#182=VERTEX_POINT('',#661);
#183=VERTEX_POINT('',#663);
#184=VERTEX_POINT('',#668);
#185=VERTEX_POINT('',#669);
#186=VERTEX_POINT('',#672);
#187=VERTEX_POINT('',#674);
#188=EDGE_CURVE('',#149,#150,#110,.T.);
#189=EDGE_CURVE('',#150,#149,#111,.T.);
#190=EDGE_CURVE('',#150,#151,#88,.T.);
#191=EDGE_CURVE('',#152,#151,#112,.T.);
#192=EDGE_CURVE('',#151,#152,#113,.T.);
#193=EDGE_CURVE('',#153,#154,#114,.T.);
#194=EDGE_CURVE('',#154,#153,#115,.T.);
#195=EDGE_CURVE('',#154,#155,#89,.T.);
#196=EDGE_CURVE('',#156,#155,#116,.T.);
#197=EDGE_CURVE('',#155,#156,#117,.T.);
#198=EDGE_CURVE('',#157,#158,#118,.T.);
#199=EDGE_CURVE('',#158,#157,#119,.T.);
#200=EDGE_CURVE('',#158,#159,#90,.T.);
#201=EDGE_CURVE('',#160,#159,#120,.T.);
#202=EDGE_CURVE('',#159,#160,#121,.T.);
#203=EDGE_CURVE('',#161,#162,#122,.T.);
#204=EDGE_CURVE('',#162,#161,#123,.T.);
#205=EDGE_CURVE('',#162,#163,#91,.T.);
#206=EDGE_CURVE('',#164,#163,#124,.T.);
#207=EDGE_CURVE('',#163,#164,#125,.T.);
#208=EDGE_CURVE('',#165,#166,#126,.T.);
#209=EDGE_CURVE('',#166,#165,#127,.T.);
#210=EDGE_CURVE('',#166,#167,#92,.T.);
#211=EDGE_CURVE('',#167,#167,#128,.T.);
#212=EDGE_CURVE('',#168,#169,#129,.T.);
#213=EDGE_CURVE('',#169,#168,#130,.T.);
#214=EDGE_CURVE('',#169,#170,#93,.T.);
#215=EDGE_CURVE('',#170,#170,#131,.T.);
#216=EDGE_CURVE('',#171,#172,#132,.T.);
#217=EDGE_CURVE('',#172,#171,#133,.T.);
#218=EDGE_CURVE('',#172,#173,#94,.T.);
#219=EDGE_CURVE('',#173,#173,#134,.T.);
#220=EDGE_CURVE('',#174,#175,#135,.T.);
#221=EDGE_CURVE('',#175,#174,#136,.T.);
#222=EDGE_CURVE('',#175,#176,#95,.T.);
#223=EDGE_CURVE('',#176,#176,#137,.T.);
#224=EDGE_CURVE('',#177,#178,#138,.T.);
#225=EDGE_CURVE('',#178,#177,#139,.T.);
#226=EDGE_CURVE('',#178,#179,#96,.T.);
#227=EDGE_CURVE('',#179,#179,#140,.T.);
#228=EDGE_CURVE('',#180,#181,#141,.T.);
#229=EDGE_CURVE('',#181,#180,#142,.T.);
#230=EDGE_CURVE('',#181,#182,#97,.T.);
#231=EDGE_CURVE('',#183,#182,#143,.T.);
#232=EDGE_CURVE('',#182,#183,#144,.T.);
#233=EDGE_CURVE('',#184,#185,#145,.T.);
#234=EDGE_CURVE('',#185,#184,#146,.T.);
#235=EDGE_CURVE('',#185,#186,#98,.T.);
#236=EDGE_CURVE('',#186,#187,#147,.T.);
#237=EDGE_CURVE('',#187,#186,#148,.T.);
#238=ORIENTED_EDGE('',*,*,#188,.F.);
#239=ORIENTED_EDGE('',*,*,#189,.F.);
#240=ORIENTED_EDGE('',*,*,#190,.T.);
#241=ORIENTED_EDGE('',*,*,#191,.F.);
#242=ORIENTED_EDGE('',*,*,#192,.F.);
#243=ORIENTED_EDGE('',*,*,#190,.F.);
#244=ORIENTED_EDGE('',*,*,#191,.T.);
#245=ORIENTED_EDGE('',*,*,#192,.T.);
#246=ORIENTED_EDGE('',*,*,#193,.F.);
#247=ORIENTED_EDGE('',*,*,#194,.F.);
#248=ORIENTED_EDGE('',*,*,#195,.T.);
#249=ORIENTED_EDGE('',*,*,#196,.F.);
#250=ORIENTED_EDGE('',*,*,#197,.F.);
#251=ORIENTED_EDGE('',*,*,#195,.F.);
#252=ORIENTED_EDGE('',*,*,#196,.T.);
#253=ORIENTED_EDGE('',*,*,#197,.T.);
#254=ORIENTED_EDGE('',*,*,#198,.F.);
#255=ORIENTED_EDGE('',*,*,#199,.F.);
#256=ORIENTED_EDGE('',*,*,#200,.T.);
#257=ORIENTED_EDGE('',*,*,#201,.F.);
#258=ORIENTED_EDGE('',*,*,#202,.F.);
#259=ORIENTED_EDGE('',*,*,#200,.F.);
#260=ORIENTED_EDGE('',*,*,#201,.T.);
#261=ORIENTED_EDGE('',*,*,#202,.T.);
#262=ORIENTED_EDGE('',*,*,#203,.F.);
#263=ORIENTED_EDGE('',*,*,#204,.F.);
#264=ORIENTED_EDGE('',*,*,#205,.T.);
#265=ORIENTED_EDGE('',*,*,#206,.F.);
#266=ORIENTED_EDGE('',*,*,#207,.F.);
#267=ORIENTED_EDGE('',*,*,#205,.F.);
#268=ORIENTED_EDGE('',*,*,#206,.T.);
#269=ORIENTED_EDGE('',*,*,#207,.T.);
#270=ORIENTED_EDGE('',*,*,#208,.F.);
#271=ORIENTED_EDGE('',*,*,#209,.F.);
#272=ORIENTED_EDGE('',*,*,#210,.T.);
#273=ORIENTED_EDGE('',*,*,#211,.F.);
#274=ORIENTED_EDGE('',*,*,#210,.F.);
#275=ORIENTED_EDGE('',*,*,#212,.F.);
#276=ORIENTED_EDGE('',*,*,#213,.F.);
#277=ORIENTED_EDGE('',*,*,#214,.T.);
#278=ORIENTED_EDGE('',*,*,#215,.F.);
#279=ORIENTED_EDGE('',*,*,#214,.F.);
#280=ORIENTED_EDGE('',*,*,#216,.F.);
#281=ORIENTED_EDGE('',*,*,#217,.F.);
#282=ORIENTED_EDGE('',*,*,#218,.T.);
#283=ORIENTED_EDGE('',*,*,#219,.F.);
#284=ORIENTED_EDGE('',*,*,#218,.F.);
#285=ORIENTED_EDGE('',*,*,#220,.F.);
#286=ORIENTED_EDGE('',*,*,#221,.F.);
#287=ORIENTED_EDGE('',*,*,#222,.T.);
#288=ORIENTED_EDGE('',*,*,#223,.F.);
#289=ORIENTED_EDGE('',*,*,#222,.F.);
#290=ORIENTED_EDGE('',*,*,#224,.F.);
#291=ORIENTED_EDGE('',*,*,#225,.F.);
#292=ORIENTED_EDGE('',*,*,#226,.T.);
#293=ORIENTED_EDGE('',*,*,#227,.F.);
#294=ORIENTED_EDGE('',*,*,#226,.F.);
#295=ORIENTED_EDGE('',*,*,#228,.F.);
#296=ORIENTED_EDGE('',*,*,#229,.F.);
#297=ORIENTED_EDGE('',*,*,#230,.T.);
#298=ORIENTED_EDGE('',*,*,#231,.F.);
#299=ORIENTED_EDGE('',*,*,#232,.F.);
#300=ORIENTED_EDGE('',*,*,#230,.F.);
#301=ORIENTED_EDGE('',*,*,#228,.T.);
#302=ORIENTED_EDGE('',*,*,#229,.T.);
#303=ORIENTED_EDGE('',*,*,#227,.T.);
#304=ORIENTED_EDGE('',*,*,#233,.F.);
#305=ORIENTED_EDGE('',*,*,#234,.F.);
#306=ORIENTED_EDGE('',*,*,#235,.T.);
#307=ORIENTED_EDGE('',*,*,#236,.T.);
#308=ORIENTED_EDGE('',*,*,#237,.T.);
#309=ORIENTED_EDGE('',*,*,#235,.F.);
#310=ORIENTED_EDGE('',*,*,#233,.T.);
#311=ORIENTED_EDGE('',*,*,#234,.T.);
#312=ORIENTED_EDGE('',*,*,#208,.T.);
#313=ORIENTED_EDGE('',*,*,#209,.T.);
#314=ORIENTED_EDGE('',*,*,#212,.T.);
#315=ORIENTED_EDGE('',*,*,#213,.T.);
#316=ORIENTED_EDGE('',*,*,#216,.T.);
#317=ORIENTED_EDGE('',*,*,#217,.T.);
#318=ORIENTED_EDGE('',*,*,#220,.T.);
#319=ORIENTED_EDGE('',*,*,#221,.T.);
#320=ORIENTED_EDGE('',*,*,#231,.T.);
#321=ORIENTED_EDGE('',*,*,#232,.T.);
#322=ORIENTED_EDGE('',*,*,#237,.F.);
#323=ORIENTED_EDGE('',*,*,#236,.F.);
#324=ORIENTED_EDGE('',*,*,#188,.T.);
#325=ORIENTED_EDGE('',*,*,#189,.T.);
#326=ORIENTED_EDGE('',*,*,#193,.T.);
#327=ORIENTED_EDGE('',*,*,#194,.T.);
#328=ORIENTED_EDGE('',*,*,#198,.T.);
#329=ORIENTED_EDGE('',*,*,#199,.T.);
#330=ORIENTED_EDGE('',*,*,#203,.T.);
#331=ORIENTED_EDGE('',*,*,#204,.T.);
#332=ORIENTED_EDGE('',*,*,#211,.T.);
#333=ORIENTED_EDGE('',*,*,#215,.T.);
#334=ORIENTED_EDGE('',*,*,#219,.T.);
#335=ORIENTED_EDGE('',*,*,#223,.T.);
#336=ORIENTED_EDGE('',*,*,#224,.T.);
#337=ORIENTED_EDGE('',*,*,#225,.T.);
#338=CYLINDRICAL_SURFACE('',#387,2.067);
#339=CYLINDRICAL_SURFACE('',#393,2.067);
#340=CYLINDRICAL_SURFACE('',#399,2.067);
#341=CYLINDRICAL_SURFACE('',#405,2.067);
#342=CYLINDRICAL_SURFACE('',#411,2.067);
#343=CYLINDRICAL_SURFACE('',#415,2.067);
#344=CYLINDRICAL_SURFACE('',#419,2.067);
#345=CYLINDRICAL_SURFACE('',#423,2.067);
#346=CYLINDRICAL_SURFACE('',#427,20.);
#347=CYLINDRICAL_SURFACE('',#431,30.);
#348=CYLINDRICAL_SURFACE('',#437,45.);
#349=ADVANCED_FACE('',(#37),#338,.F.);
#350=ADVANCED_FACE('',(#38),#30,.T.);
#351=ADVANCED_FACE('',(#39),#339,.F.);
#352=ADVANCED_FACE('',(#40),#31,.T.);
#353=ADVANCED_FACE('',(#41),#340,.F.);
#354=ADVANCED_FACE('',(#42),#32,.T.);
#355=ADVANCED_FACE('',(#43),#341,.F.);
#356=ADVANCED_FACE('',(#44),#33,.T.);
#357=ADVANCED_FACE('',(#45),#342,.F.);
#358=ADVANCED_FACE('',(#46),#343,.F.);
#359=ADVANCED_FACE('',(#47),#344,.F.);
#360=ADVANCED_FACE('',(#48),#345,.F.);
#361=ADVANCED_FACE('',(#49),#346,.F.);
#362=ADVANCED_FACE('',(#50),#347,.T.);
#363=ADVANCED_FACE('',(#51,#15),#34,.T.);
#364=ADVANCED_FACE('',(#52),#348,.T.);
#365=ADVANCED_FACE('',(#53,#16,#17,#18,#19,#20),#35,.T.);
#366=ADVANCED_FACE('',(#54,#21,#22,#23,#24,#25,#26,#27,#28,#29),#36,.F.);
#367=CLOSED_SHELL('',(#349,#350,#351,#352,#353,#354,#355,#356,#357,#358,
#359,#360,#361,#362,#363,#364,#365,#366));
#368=DERIVED_UNIT_ELEMENT(#370,1.);
#369=DERIVED_UNIT_ELEMENT(#684,3.);
#370=(
MASS_UNIT()
NAMED_UNIT(*)
SI_UNIT($,.GRAM.)
);
#371=DERIVED_UNIT((#368,#369));
#372=MEASURE_REPRESENTATION_ITEM('density measure',
POSITIVE_RATIO_MEASURE(1.),#371);
#373=PROPERTY_DEFINITION_REPRESENTATION(#378,#375);
#374=PROPERTY_DEFINITION_REPRESENTATION(#379,#376);
#375=REPRESENTATION('material name',(#377),#681);
#376=REPRESENTATION('density',(#372),#681);
#377=DESCRIPTIVE_REPRESENTATION_ITEM('G\X\E9n\X\E9rique','G\X\E9n\X\E9
rique');
#378=PROPERTY_DEFINITION('material property','material name',#691);
#379=PROPERTY_DEFINITION('material property','density of part',#691);
#380=DATE_TIME_ROLE('creation_date');
#381=APPLIED_DATE_AND_TIME_ASSIGNMENT(#382,#380,(#691));
#382=DATE_AND_TIME(#383,#384);
#383=CALENDAR_DATE(2020,13,11);
#384=LOCAL_TIME(8,22,22.,#385);
#385=COORDINATED_UNIVERSAL_TIME_OFFSET(0,0,.BEHIND.);
#386=AXIS2_PLACEMENT_3D('placement',#571,#444,#445);
#387=AXIS2_PLACEMENT_3D('',#572,#446,#447);
#388=AXIS2_PLACEMENT_3D('',#575,#448,#449);
#389=AXIS2_PLACEMENT_3D('',#576,#450,#451);
#390=AXIS2_PLACEMENT_3D('',#580,#453,#454);
#391=AXIS2_PLACEMENT_3D('',#581,#455,#456);
#392=AXIS2_PLACEMENT_3D('',#582,#457,#458);
#393=AXIS2_PLACEMENT_3D('',#583,#459,#460);
#394=AXIS2_PLACEMENT_3D('',#586,#461,#462);
#395=AXIS2_PLACEMENT_3D('',#587,#463,#464);
#396=AXIS2_PLACEMENT_3D('',#591,#466,#467);
#397=AXIS2_PLACEMENT_3D('',#592,#468,#469);
#398=AXIS2_PLACEMENT_3D('',#593,#470,#471);
#399=AXIS2_PLACEMENT_3D('',#594,#472,#473);
#400=AXIS2_PLACEMENT_3D('',#597,#474,#475);
#401=AXIS2_PLACEMENT_3D('',#598,#476,#477);
#402=AXIS2_PLACEMENT_3D('',#602,#479,#480);
#403=AXIS2_PLACEMENT_3D('',#603,#481,#482);
#404=AXIS2_PLACEMENT_3D('',#604,#483,#484);
#405=AXIS2_PLACEMENT_3D('',#605,#485,#486);
#406=AXIS2_PLACEMENT_3D('',#608,#487,#488);
#407=AXIS2_PLACEMENT_3D('',#609,#489,#490);
#408=AXIS2_PLACEMENT_3D('',#613,#492,#493);
#409=AXIS2_PLACEMENT_3D('',#614,#494,#495);
#410=AXIS2_PLACEMENT_3D('',#615,#496,#497);
#411=AXIS2_PLACEMENT_3D('',#616,#498,#499);
#412=AXIS2_PLACEMENT_3D('',#619,#500,#501);
#413=AXIS2_PLACEMENT_3D('',#620,#502,#503);
#414=AXIS2_PLACEMENT_3D('',#623,#505,#506);
#415=AXIS2_PLACEMENT_3D('',#624,#507,#508);
#416=AXIS2_PLACEMENT_3D('',#627,#509,#510);
#417=AXIS2_PLACEMENT_3D('',#628,#511,#512);
#418=AXIS2_PLACEMENT_3D('',#631,#514,#515);
#419=AXIS2_PLACEMENT_3D('',#632,#516,#517);
#420=AXIS2_PLACEMENT_3D('',#635,#518,#519);
#421=AXIS2_PLACEMENT_3D('',#636,#520,#521);
#422=AXIS2_PLACEMENT_3D('',#639,#523,#524);
#423=AXIS2_PLACEMENT_3D('',#640,#525,#526);
#424=AXIS2_PLACEMENT_3D('',#643,#527,#528);
#425=AXIS2_PLACEMENT_3D('',#644,#529,#530);
#426=AXIS2_PLACEMENT_3D('',#647,#532,#533);
#427=AXIS2_PLACEMENT_3D('',#648,#534,#535);
#428=AXIS2_PLACEMENT_3D('',#651,#536,#537);
#429=AXIS2_PLACEMENT_3D('',#652,#538,#539);
#430=AXIS2_PLACEMENT_3D('',#655,#541,#542);
#431=AXIS2_PLACEMENT_3D('',#656,#543,#544);
#432=AXIS2_PLACEMENT_3D('',#659,#545,#546);
#433=AXIS2_PLACEMENT_3D('',#660,#547,#548);
#434=AXIS2_PLACEMENT_3D('',#664,#550,#551);
#435=AXIS2_PLACEMENT_3D('',#665,#552,#553);
#436=AXIS2_PLACEMENT_3D('',#666,#554,#555);
#437=AXIS2_PLACEMENT_3D('',#667,#556,#557);
#438=AXIS2_PLACEMENT_3D('',#670,#558,#559);
#439=AXIS2_PLACEMENT_3D('',#671,#560,#561);
#440=AXIS2_PLACEMENT_3D('',#675,#563,#564);
#441=AXIS2_PLACEMENT_3D('',#676,#565,#566);
#442=AXIS2_PLACEMENT_3D('',#677,#567,#568);
#443=AXIS2_PLACEMENT_3D('',#678,#569,#570);
#444=DIRECTION('axis',(0.,0.,1.));
#445=DIRECTION('refdir',(1.,0.,0.));
#446=DIRECTION('center_axis',(0.,-1.,0.));
#447=DIRECTION('ref_axis',(1.,0.,0.));
#448=DIRECTION('center_axis',(0.,1.,0.));
#449=DIRECTION('ref_axis',(1.,0.,0.));
#450=DIRECTION('center_axis',(0.,1.,0.));
#451=DIRECTION('ref_axis',(1.,0.,0.));
#452=DIRECTION('',(0.,1.,0.));
#453=DIRECTION('center_axis',(0.,-1.,0.));
#454=DIRECTION('ref_axis',(1.,0.,0.));
#455=DIRECTION('center_axis',(0.,-1.,0.));
#456=DIRECTION('ref_axis',(1.,0.,0.));
#457=DIRECTION('center_axis',(0.,-1.,0.));
#458=DIRECTION('ref_axis',(1.,0.,0.));
#459=DIRECTION('center_axis',(0.,-1.,0.));
#460=DIRECTION('ref_axis',(1.,0.,0.));
#461=DIRECTION('center_axis',(0.,1.,0.));
#462=DIRECTION('ref_axis',(1.,0.,0.));
#463=DIRECTION('center_axis',(0.,1.,0.));
#464=DIRECTION('ref_axis',(1.,0.,0.));
#465=DIRECTION('',(0.,1.,0.));
#466=DIRECTION('center_axis',(0.,-1.,0.));
#467=DIRECTION('ref_axis',(1.,0.,0.));
#468=DIRECTION('center_axis',(0.,-1.,0.));
#469=DIRECTION('ref_axis',(1.,0.,0.));
#470=DIRECTION('center_axis',(0.,-1.,0.));
#471=DIRECTION('ref_axis',(1.,0.,0.));
#472=DIRECTION('center_axis',(0.,-1.,0.));
#473=DIRECTION('ref_axis',(1.,0.,0.));
#474=DIRECTION('center_axis',(0.,1.,0.));
#475=DIRECTION('ref_axis',(1.,0.,0.));
#476=DIRECTION('center_axis',(0.,1.,0.));
#477=DIRECTION('ref_axis',(1.,0.,0.));
#478=DIRECTION('',(0.,1.,0.));
#479=DIRECTION('center_axis',(0.,-1.,0.));
#480=DIRECTION('ref_axis',(1.,0.,0.));
#481=DIRECTION('center_axis',(0.,-1.,0.));
#482=DIRECTION('ref_axis',(1.,0.,0.));
#483=DIRECTION('center_axis',(0.,-1.,0.));
#484=DIRECTION('ref_axis',(1.,0.,0.));
#485=DIRECTION('center_axis',(0.,-1.,0.));
#486=DIRECTION('ref_axis',(1.,0.,0.));
#487=DIRECTION('center_axis',(0.,1.,0.));
#488=DIRECTION('ref_axis',(1.,0.,0.));
#489=DIRECTION('center_axis',(0.,1.,0.));
#490=DIRECTION('ref_axis',(1.,0.,0.));
#491=DIRECTION('',(0.,1.,0.));
#492=DIRECTION('center_axis',(0.,-1.,0.));
#493=DIRECTION('ref_axis',(1.,0.,0.));
#494=DIRECTION('center_axis',(0.,-1.,0.));
#495=DIRECTION('ref_axis',(1.,0.,0.));
#496=DIRECTION('center_axis',(0.,-1.,0.));
#497=DIRECTION('ref_axis',(1.,0.,0.));
#498=DIRECTION('center_axis',(0.,1.,0.));
#499=DIRECTION('ref_axis',(1.,0.,0.));
#500=DIRECTION('center_axis',(0.,-1.,0.));
#501=DIRECTION('ref_axis',(1.,0.,0.));
#502=DIRECTION('center_axis',(0.,-1.,0.));
#503=DIRECTION('ref_axis',(1.,0.,0.));
#504=DIRECTION('',(0.,-1.,0.));
#505=DIRECTION('center_axis',(0.,1.,0.));
#506=DIRECTION('ref_axis',(1.,0.,0.));
#507=DIRECTION('center_axis',(0.,1.,0.));
#508=DIRECTION('ref_axis',(1.,0.,0.));
#509=DIRECTION('center_axis',(0.,-1.,0.));
#510=DIRECTION('ref_axis',(1.,0.,0.));
#511=DIRECTION('center_axis',(0.,-1.,0.));
#512=DIRECTION('ref_axis',(1.,0.,0.));
#513=DIRECTION('',(0.,-1.,0.));
#514=DIRECTION('center_axis',(0.,1.,0.));
#515=DIRECTION('ref_axis',(1.,0.,0.));
#516=DIRECTION('center_axis',(0.,1.,0.));
#517=DIRECTION('ref_axis',(1.,0.,0.));
#518=DIRECTION('center_axis',(0.,-1.,0.));
#519=DIRECTION('ref_axis',(1.,0.,0.));
#520=DIRECTION('center_axis',(0.,-1.,0.));
#521=DIRECTION('ref_axis',(1.,0.,0.));
#522=DIRECTION('',(0.,-1.,0.));
#523=DIRECTION('center_axis',(0.,1.,0.));
#524=DIRECTION('ref_axis',(1.,0.,0.));
#525=DIRECTION('center_axis',(0.,1.,0.));
#526=DIRECTION('ref_axis',(1.,0.,0.));
#527=DIRECTION('center_axis',(0.,-1.,0.));
#528=DIRECTION('ref_axis',(1.,0.,0.));
#529=DIRECTION('center_axis',(0.,-1.,0.));
#530=DIRECTION('ref_axis',(1.,0.,0.));
#531=DIRECTION('',(0.,-1.,0.));
#532=DIRECTION('center_axis',(0.,1.,0.));
#533=DIRECTION('ref_axis',(1.,0.,0.));
#534=DIRECTION('center_axis',(0.,1.,0.));
#535=DIRECTION('ref_axis',(1.,0.,0.));
#536=DIRECTION('center_axis',(0.,1.,0.));
#537=DIRECTION('ref_axis',(1.,0.,0.));
#538=DIRECTION('center_axis',(0.,1.,0.));
#539=DIRECTION('ref_axis',(1.,0.,0.));
#540=DIRECTION('',(0.,1.,0.));
#541=DIRECTION('center_axis',(0.,-1.,0.));
#542=DIRECTION('ref_axis',(1.,0.,0.));
#543=DIRECTION('center_axis',(0.,1.,0.));
#544=DIRECTION('ref_axis',(1.,0.,0.));
#545=DIRECTION('center_axis',(0.,1.,0.));
#546=DIRECTION('ref_axis',(1.,0.,0.));
#547=DIRECTION('center_axis',(0.,1.,0.));
#548=DIRECTION('ref_axis',(1.,0.,0.));
#549=DIRECTION('',(0.,-1.,0.));
#550=DIRECTION('center_axis',(0.,-1.,0.));
#551=DIRECTION('ref_axis',(1.,0.,0.));
#552=DIRECTION('center_axis',(0.,-1.,0.));
#553=DIRECTION('ref_axis',(1.,0.,0.));
#554=DIRECTION('center_axis',(0.,1.,0.));
#555=DIRECTION('ref_axis',(0.,0.,1.));
#556=DIRECTION('center_axis',(0.,1.,0.));
#557=DIRECTION('ref_axis',(-1.,0.,0.));
#558=DIRECTION('center_axis',(0.,1.,0.));
#559=DIRECTION('ref_axis',(-1.,0.,0.));
#560=DIRECTION('center_axis',(0.,1.,0.));
#561=DIRECTION('ref_axis',(-1.,0.,0.));
#562=DIRECTION('',(0.,-1.,0.));
#563=DIRECTION('center_axis',(0.,1.,0.));
#564=DIRECTION('ref_axis',(-1.,0.,0.));
#565=DIRECTION('center_axis',(0.,1.,0.));
#566=DIRECTION('ref_axis',(-1.,0.,0.));
#567=DIRECTION('center_axis',(0.,1.,0.));
#568=DIRECTION('ref_axis',(0.,0.,1.));
#569=DIRECTION('center_axis',(0.,1.,0.));
#570=DIRECTION('ref_axis',(0.,0.,1.));
#571=CARTESIAN_POINT('',(0.,0.,0.));
#572=CARTESIAN_POINT('Origin',(22.2738636073763,2.,22.2738636073763));
#573=CARTESIAN_POINT('',(24.3408636073763,0.,22.2738636073763));
#574=CARTESIAN_POINT('',(20.2068636073762,0.,22.2738636073763));
#575=CARTESIAN_POINT('Origin',(22.2738636073763,0.,22.2738636073763));
#576=CARTESIAN_POINT('Origin',(22.2738636073763,0.,22.2738636073763));
#577=CARTESIAN_POINT('',(20.2068636073762,4.,22.2738636073763));
#578=CARTESIAN_POINT('',(20.2068636073762,2.,22.2738636073763));
#579=CARTESIAN_POINT('',(24.3408636073763,4.,22.2738636073763));
#580=CARTESIAN_POINT('Origin',(22.2738636073763,4.,22.2738636073763));
#581=CARTESIAN_POINT('Origin',(22.2738636073763,4.,22.2738636073763));
#582=CARTESIAN_POINT('Origin',(22.2738636073763,4.,22.2738636073763));
#583=CARTESIAN_POINT('Origin',(22.2738636073763,2.,-22.2738636073762));
#584=CARTESIAN_POINT('',(24.3408636073763,0.,-22.2738636073762));
#585=CARTESIAN_POINT('',(20.2068636073762,0.,-22.2738636073762));
#586=CARTESIAN_POINT('Origin',(22.2738636073763,0.,-22.2738636073762));
#587=CARTESIAN_POINT('Origin',(22.2738636073763,0.,-22.2738636073762));
#588=CARTESIAN_POINT('',(20.2068636073762,4.,-22.2738636073762));
#589=CARTESIAN_POINT('',(20.2068636073762,2.,-22.2738636073762));
#590=CARTESIAN_POINT('',(24.3408636073763,4.,-22.2738636073762));
#591=CARTESIAN_POINT('Origin',(22.2738636073763,4.,-22.2738636073762));
#592=CARTESIAN_POINT('Origin',(22.2738636073763,4.,-22.2738636073762));
#593=CARTESIAN_POINT('Origin',(22.2738636073763,4.,-22.2738636073762));
#594=CARTESIAN_POINT('Origin',(-22.2738636073762,2.,-22.2738636073763));
#595=CARTESIAN_POINT('',(-20.2068636073762,0.,-22.2738636073763));
#596=CARTESIAN_POINT('',(-24.3408636073762,0.,-22.2738636073763));
#597=CARTESIAN_POINT('Origin',(-22.2738636073762,0.,-22.2738636073763));
#598=CARTESIAN_POINT('Origin',(-22.2738636073762,0.,-22.2738636073763));
#599=CARTESIAN_POINT('',(-24.3408636073762,4.,-22.2738636073763));
#600=CARTESIAN_POINT('',(-24.3408636073762,2.,-22.2738636073763));
#601=CARTESIAN_POINT('',(-20.2068636073762,4.,-22.2738636073763));
#602=CARTESIAN_POINT('Origin',(-22.2738636073762,4.,-22.2738636073763));
#603=CARTESIAN_POINT('Origin',(-22.2738636073762,4.,-22.2738636073763));
#604=CARTESIAN_POINT('Origin',(-22.2738636073762,4.,-22.2738636073763));
#605=CARTESIAN_POINT('Origin',(-22.2738636073763,2.,22.2738636073762));
#606=CARTESIAN_POINT('',(-20.2068636073762,0.,22.2738636073762));
#607=CARTESIAN_POINT('',(-24.3408636073763,0.,22.2738636073762));
#608=CARTESIAN_POINT('Origin',(-22.2738636073763,0.,22.2738636073762));
#609=CARTESIAN_POINT('Origin',(-22.2738636073763,0.,22.2738636073762));
#610=CARTESIAN_POINT('',(-24.3408636073763,4.,22.2738636073762));
#611=CARTESIAN_POINT('',(-24.3408636073763,2.,22.2738636073762));
#612=CARTESIAN_POINT('',(-20.2068636073762,4.,22.2738636073762));
#613=CARTESIAN_POINT('Origin',(-22.2738636073763,4.,22.2738636073762));
#614=CARTESIAN_POINT('Origin',(-22.2738636073763,4.,22.2738636073762));
#615=CARTESIAN_POINT('Origin',(-22.2738636073763,4.,22.2738636073762));
#616=CARTESIAN_POINT('Origin',(0.,-2.1,-37.5));
#617=CARTESIAN_POINT('',(2.067,5.,-37.5));
#618=CARTESIAN_POINT('',(-2.067,5.,-37.5));
#619=CARTESIAN_POINT('Origin',(0.,5.,-37.5));
#620=CARTESIAN_POINT('Origin',(0.,5.,-37.5));
#621=CARTESIAN_POINT('',(-2.067,0.,-37.5));
#622=CARTESIAN_POINT('',(-2.067,-2.1,-37.5));
#623=CARTESIAN_POINT('Origin',(0.,0.,-37.5));
#624=CARTESIAN_POINT('Origin',(0.,-2.1,37.5));
#625=CARTESIAN_POINT('',(2.067,5.,37.5));
#626=CARTESIAN_POINT('',(-2.067,5.,37.5));
#627=CARTESIAN_POINT('Origin',(0.,5.,37.5));
#628=CARTESIAN_POINT('Origin',(0.,5.,37.5));
#629=CARTESIAN_POINT('',(-2.067,0.,37.5));
#630=CARTESIAN_POINT('',(-2.067,-2.1,37.5));
#631=CARTESIAN_POINT('Origin',(0.,0.,37.5));
#632=CARTESIAN_POINT('Origin',(-37.5,-2.1,0.));
#633=CARTESIAN_POINT('',(-35.433,5.,0.));
#634=CARTESIAN_POINT('',(-39.567,5.,2.53134493383758E-16));
#635=CARTESIAN_POINT('Origin',(-37.5,5.,0.));
#636=CARTESIAN_POINT('Origin',(-37.5,5.,0.));
#637=CARTESIAN_POINT('',(-39.567,0.,2.53134493383758E-16));
#638=CARTESIAN_POINT('',(-39.567,-2.1,2.53134493383758E-16));
#639=CARTESIAN_POINT('Origin',(-37.5,0.,0.));
#640=CARTESIAN_POINT('Origin',(37.5,-2.1,0.));
#641=CARTESIAN_POINT('',(39.567,5.,0.));
#642=CARTESIAN_POINT('',(35.433,5.,2.53134493383758E-16));
#643=CARTESIAN_POINT('Origin',(37.5,5.,0.));
#644=CARTESIAN_POINT('Origin',(37.5,5.,0.));
#645=CARTESIAN_POINT('',(35.433,0.,2.53134493383758E-16));
#646=CARTESIAN_POINT('',(35.433,-2.1,2.53134493383758E-16));
#647=CARTESIAN_POINT('Origin',(37.5,0.,0.));
#648=CARTESIAN_POINT('Origin',(0.,0.,0.));
#649=CARTESIAN_POINT('',(20.,0.,0.));
#650=CARTESIAN_POINT('',(-20.,0.,2.44929359829471E-15));
#651=CARTESIAN_POINT('Origin',(0.,0.,0.));
#652=CARTESIAN_POINT('Origin',(0.,0.,0.));
#653=CARTESIAN_POINT('',(-20.,7.5,-2.44929359829471E-15));
#654=CARTESIAN_POINT('',(-20.,0.,2.44929359829471E-15));
#655=CARTESIAN_POINT('Origin',(0.,7.5,0.));
#656=CARTESIAN_POINT('Origin',(0.,5.,0.));
#657=CARTESIAN_POINT('',(30.,7.5,0.));
#658=CARTESIAN_POINT('',(-30.,7.5,3.67394039744206E-15));
#659=CARTESIAN_POINT('Origin',(0.,7.5,0.));
#660=CARTESIAN_POINT('Origin',(0.,7.5,0.));
#661=CARTESIAN_POINT('',(-30.,5.,3.67394039744206E-15));
#662=CARTESIAN_POINT('',(-30.,5.,3.67394039744206E-15));
#663=CARTESIAN_POINT('',(30.,5.,0.));
#664=CARTESIAN_POINT('Origin',(0.,5.,0.));
#665=CARTESIAN_POINT('Origin',(0.,5.,0.));
#666=CARTESIAN_POINT('Origin',(0.,7.5,0.));
#667=CARTESIAN_POINT('Origin',(0.,0.,0.));
#668=CARTESIAN_POINT('',(-45.,5.,0.));
#669=CARTESIAN_POINT('',(45.,5.,-5.51091059616309E-15));
#670=CARTESIAN_POINT('Origin',(0.,5.,0.));
#671=CARTESIAN_POINT('Origin',(0.,5.,0.));
#672=CARTESIAN_POINT('',(45.,0.,-5.51091059616309E-15));
#673=CARTESIAN_POINT('',(45.,0.,-5.51091059616309E-15));
#674=CARTESIAN_POINT('',(-45.,0.,0.));
#675=CARTESIAN_POINT('Origin',(0.,0.,0.));
#676=CARTESIAN_POINT('Origin',(0.,0.,0.));
#677=CARTESIAN_POINT('Origin',(0.,5.,0.));
#678=CARTESIAN_POINT('Origin',(0.,0.,0.));
#679=UNCERTAINTY_MEASURE_WITH_UNIT(LENGTH_MEASURE(0.01),#683,
'DISTANCE_ACCURACY_VALUE',
'Maximum model space distance between geometric entities at asserted c
onnectivities');
#680=UNCERTAINTY_MEASURE_WITH_UNIT(LENGTH_MEASURE(0.01),#683,
'DISTANCE_ACCURACY_VALUE',
'Maximum model space distance between geometric entities at asserted c
onnectivities');
#681=(
GEOMETRIC_REPRESENTATION_CONTEXT(3)
GLOBAL_UNCERTAINTY_ASSIGNED_CONTEXT((#679))
GLOBAL_UNIT_ASSIGNED_CONTEXT((#683,#685,#686))
REPRESENTATION_CONTEXT('','3D')
);
#682=(
GEOMETRIC_REPRESENTATION_CONTEXT(3)
GLOBAL_UNCERTAINTY_ASSIGNED_CONTEXT((#680))
GLOBAL_UNIT_ASSIGNED_CONTEXT((#683,#685,#686))
REPRESENTATION_CONTEXT('','3D')
);
#683=(
LENGTH_UNIT()
NAMED_UNIT(*)
SI_UNIT(.MILLI.,.METRE.)
);
#684=(
LENGTH_UNIT()
NAMED_UNIT(*)
SI_UNIT(.CENTI.,.METRE.)
);
#685=(
NAMED_UNIT(*)
PLANE_ANGLE_UNIT()
SI_UNIT($,.RADIAN.)
);
#686=(
NAMED_UNIT(*)
SI_UNIT($,.STERADIAN.)
SOLID_ANGLE_UNIT()
);
#687=SHAPE_DEFINITION_REPRESENTATION(#688,#689);
#688=PRODUCT_DEFINITION_SHAPE('',$,#691);
#689=SHAPE_REPRESENTATION('',(#386),#681);
#690=PRODUCT_DEFINITION_CONTEXT('part definition',#695,'design');
#691=PRODUCT_DEFINITION('Pi\X\E8ce1','Pi\X\E8ce1',#692,#690);
#692=PRODUCT_DEFINITION_FORMATION('',$,#697);
#693=PRODUCT_RELATED_PRODUCT_CATEGORY('Pi\X\E8ce1','Pi\X\E8ce1',(#697));
#694=APPLICATION_PROTOCOL_DEFINITION('international standard',
'automotive_design',2009,#695);
#695=APPLICATION_CONTEXT(
'Core Data for Automotive Mechanical Design Process');
#696=PRODUCT_CONTEXT('part definition',#695,'mechanical');
#697=PRODUCT('Pi\X\E8ce1','Pi\X\E8ce1',$,(#696));
#698=PRESENTATION_STYLE_ASSIGNMENT((#699));
#699=SURFACE_STYLE_USAGE(.BOTH.,#702);
#700=SURFACE_STYLE_RENDERING_WITH_PROPERTIES($,#706,(#701));
#701=SURFACE_STYLE_TRANSPARENT(0.);
#702=SURFACE_SIDE_STYLE('',(#703,#700));
#703=SURFACE_STYLE_FILL_AREA(#704);
#704=FILL_AREA_STYLE('',(#705));
#705=FILL_AREA_STYLE_COLOUR('',#706);
#706=COLOUR_RGB('',0.749019607843137,0.749019607843137,0.749019607843137);
ENDSEC;
END-ISO-10303-21;
