ISO-10303-21;
HEADER;
/* Generated by software containing ST-Developer
 * from STEP Tools, Inc. (www.steptools.com) 
 */
/* OPTION: strings as raw bytes, not using required /X/ escapes */

FILE_DESCRIPTION(
/* description */ ('Unknown'),
/* implementation_level */ '2;1');

FILE_NAME(
/* name */ 'fourrure',
/* time_stamp */ '2020-11-16T19:00:07+01:00',
/* author */ ('Unknown'),
/* organization */ ('Unknown'),
/* preprocessor_version */ 'ST-DEVELOPER v16.7',
/* originating_system */ 'DEX',
/* authorisation */ $);

FILE_SCHEMA (('AUTOMOTIVE_DESIGN {1 0 10303 214 3 1 1}'));
ENDSEC;

DATA;
#10=PROPERTY_DEFINITION_REPRESENTATION(#14,#12);
#11=PROPERTY_DEFINITION_REPRESENTATION(#15,#13);
#12=REPRESENTATION('',(#16),#397);
#13=REPRESENTATION('',(#17),#397);
#14=PROPERTY_DEFINITION('pmi validation property','',#402);
#15=PROPERTY_DEFINITION('pmi validation property','',#402);
#16=VALUE_REPRESENTATION_ITEM('number of annotations',COUNT_MEASURE(0.));
#17=VALUE_REPRESENTATION_ITEM('number of views',COUNT_MEASURE(0.));
#18=SHAPE_REPRESENTATION_RELATIONSHIP('','',#268,#19);
#19=ADVANCED_BREP_SHAPE_REPRESENTATION('',(#266),#397);
#20=CONICAL_SURFACE('',#284,5.99999999999997,0.785398163397443);
#21=PLANE('',#279);
#22=PLANE('',#286);
#23=PLANE('',#290);
#24=PLANE('',#294);
#25=ORIENTED_EDGE('',*,*,#55,.F.);
#26=ORIENTED_EDGE('',*,*,#56,.T.);
#27=ORIENTED_EDGE('',*,*,#57,.F.);
#28=ORIENTED_EDGE('',*,*,#58,.T.);
#29=ORIENTED_EDGE('',*,*,#59,.F.);
#30=ORIENTED_EDGE('',*,*,#60,.T.);
#31=ORIENTED_EDGE('',*,*,#55,.T.);
#32=ORIENTED_EDGE('',*,*,#57,.T.);
#33=ORIENTED_EDGE('',*,*,#61,.T.);
#34=ORIENTED_EDGE('',*,*,#62,.F.);
#35=ORIENTED_EDGE('',*,*,#59,.T.);
#36=ORIENTED_EDGE('',*,*,#63,.F.);
#37=ORIENTED_EDGE('',*,*,#62,.T.);
#38=ORIENTED_EDGE('',*,*,#64,.F.);
#39=ORIENTED_EDGE('',*,*,#63,.T.);
#40=ORIENTED_EDGE('',*,*,#65,.F.);
#41=ORIENTED_EDGE('',*,*,#64,.T.);
#42=ORIENTED_EDGE('',*,*,#66,.F.);
#43=ORIENTED_EDGE('',*,*,#65,.T.);
#44=ORIENTED_EDGE('',*,*,#67,.F.);
#45=ORIENTED_EDGE('',*,*,#66,.T.);
#46=ORIENTED_EDGE('',*,*,#68,.F.);
#47=ORIENTED_EDGE('',*,*,#67,.T.);
#48=ORIENTED_EDGE('',*,*,#56,.F.);
#49=ORIENTED_EDGE('',*,*,#58,.F.);
#50=ORIENTED_EDGE('',*,*,#69,.F.);
#51=ORIENTED_EDGE('',*,*,#60,.F.);
#52=ORIENTED_EDGE('',*,*,#68,.T.);
#53=ORIENTED_EDGE('',*,*,#61,.F.);
#54=ORIENTED_EDGE('',*,*,#69,.T.);
#55=EDGE_CURVE('',#70,#70,#85,.T.);
#56=EDGE_CURVE('',#71,#71,#86,.T.);
#57=EDGE_CURVE('',#72,#72,#87,.T.);
#58=EDGE_CURVE('',#73,#73,#88,.T.);
#59=EDGE_CURVE('',#74,#74,#89,.T.);
#60=EDGE_CURVE('',#75,#75,#90,.T.);
#61=EDGE_CURVE('',#76,#76,#91,.T.);
#62=EDGE_CURVE('',#77,#77,#92,.T.);
#63=EDGE_CURVE('',#78,#78,#93,.T.);
#64=EDGE_CURVE('',#79,#79,#94,.T.);
#65=EDGE_CURVE('',#80,#80,#95,.T.);
#66=EDGE_CURVE('',#81,#81,#96,.T.);
#67=EDGE_CURVE('',#82,#82,#97,.T.);
#68=EDGE_CURVE('',#83,#83,#98,.T.);
#69=EDGE_CURVE('',#84,#84,#99,.T.);
#70=VERTEX_POINT('',#356);
#71=VERTEX_POINT('',#358);
#72=VERTEX_POINT('',#361);
#73=VERTEX_POINT('',#363);
#74=VERTEX_POINT('',#366);
#75=VERTEX_POINT('',#368);
#76=VERTEX_POINT('',#371);
#77=VERTEX_POINT('',#373);
#78=VERTEX_POINT('',#376);
#79=VERTEX_POINT('',#379);
#80=VERTEX_POINT('',#382);
#81=VERTEX_POINT('',#385);
#82=VERTEX_POINT('',#388);
#83=VERTEX_POINT('',#391);
#84=VERTEX_POINT('',#394);
#85=CIRCLE('',#271,2.067);
#86=CIRCLE('',#272,2.067);
#87=CIRCLE('',#274,2.067);
#88=CIRCLE('',#275,2.067);
#89=CIRCLE('',#277,20.);
#90=CIRCLE('',#278,20.);
#91=CIRCLE('',#280,2.067);
#92=CIRCLE('',#281,5.99999999999996);
#93=CIRCLE('',#283,5.99999999999997);
#94=CIRCLE('',#285,5.19999999999995);
#95=CIRCLE('',#287,4.00000000000002);
#96=CIRCLE('',#289,4.00000000000002);
#97=CIRCLE('',#291,8.00000000000002);
#98=CIRCLE('',#293,8.00000000000002);
#99=CIRCLE('',#295,2.067);
#100=EDGE_LOOP('',(#25));
#101=EDGE_LOOP('',(#26));
#102=EDGE_LOOP('',(#27));
#103=EDGE_LOOP('',(#28));
#104=EDGE_LOOP('',(#29));
#105=EDGE_LOOP('',(#30));
#106=EDGE_LOOP('',(#31));
#107=EDGE_LOOP('',(#32));
#108=EDGE_LOOP('',(#33));
#109=EDGE_LOOP('',(#34));
#110=EDGE_LOOP('',(#35));
#111=EDGE_LOOP('',(#36));
#112=EDGE_LOOP('',(#37));
#113=EDGE_LOOP('',(#38));
#114=EDGE_LOOP('',(#39));
#115=EDGE_LOOP('',(#40));
#116=EDGE_LOOP('',(#41));
#117=EDGE_LOOP('',(#42));
#118=EDGE_LOOP('',(#43));
#119=EDGE_LOOP('',(#44));
#120=EDGE_LOOP('',(#45));
#121=EDGE_LOOP('',(#46));
#122=EDGE_LOOP('',(#47));
#123=EDGE_LOOP('',(#48));
#124=EDGE_LOOP('',(#49));
#125=EDGE_LOOP('',(#50));
#126=EDGE_LOOP('',(#51));
#127=EDGE_LOOP('',(#52));
#128=EDGE_LOOP('',(#53));
#129=EDGE_LOOP('',(#54));
#130=FACE_BOUND('',#100,.T.);
#131=FACE_BOUND('',#101,.T.);
#132=FACE_BOUND('',#102,.T.);
#133=FACE_BOUND('',#103,.T.);
#134=FACE_BOUND('',#104,.T.);
#135=FACE_BOUND('',#105,.T.);
#136=FACE_BOUND('',#106,.T.);
#137=FACE_BOUND('',#107,.T.);
#138=FACE_BOUND('',#108,.T.);
#139=FACE_BOUND('',#109,.T.);
#140=FACE_BOUND('',#110,.T.);
#141=FACE_BOUND('',#111,.T.);
#142=FACE_BOUND('',#112,.T.);
#143=FACE_BOUND('',#113,.T.);
#144=FACE_BOUND('',#114,.T.);
#145=FACE_BOUND('',#115,.T.);
#146=FACE_BOUND('',#116,.T.);
#147=FACE_BOUND('',#117,.T.);
#148=FACE_BOUND('',#118,.T.);
#149=FACE_BOUND('',#119,.T.);
#150=FACE_BOUND('',#120,.T.);
#151=FACE_BOUND('',#121,.T.);
#152=FACE_BOUND('',#122,.T.);
#153=FACE_BOUND('',#123,.T.);
#154=FACE_BOUND('',#124,.T.);
#155=FACE_BOUND('',#125,.T.);
#156=FACE_BOUND('',#126,.T.);
#157=FACE_BOUND('',#127,.T.);
#158=FACE_BOUND('',#128,.T.);
#159=FACE_BOUND('',#129,.T.);
#160=CYLINDRICAL_SURFACE('',#270,2.067);
#161=CYLINDRICAL_SURFACE('',#273,2.067);
#162=CYLINDRICAL_SURFACE('',#276,20.);
#163=CYLINDRICAL_SURFACE('',#282,5.99999999999996);
#164=CYLINDRICAL_SURFACE('',#288,4.00000000000002);
#165=CYLINDRICAL_SURFACE('',#292,8.00000000000002);
#166=CYLINDRICAL_SURFACE('',#296,2.067);
#167=STYLED_ITEM('',(#179),#253);
#168=STYLED_ITEM('',(#180),#254);
#169=STYLED_ITEM('',(#181),#255);
#170=STYLED_ITEM('',(#182),#256);
#171=STYLED_ITEM('',(#183),#257);
#172=STYLED_ITEM('',(#184),#258);
#173=STYLED_ITEM('',(#185),#259);
#174=STYLED_ITEM('',(#186),#260);
#175=STYLED_ITEM('',(#187),#261);
#176=STYLED_ITEM('',(#188),#262);
#177=STYLED_ITEM('',(#189),#263);
#178=STYLED_ITEM('',(#190),#264);
#179=PRESENTATION_STYLE_ASSIGNMENT((#191));
#180=PRESENTATION_STYLE_ASSIGNMENT((#192));
#181=PRESENTATION_STYLE_ASSIGNMENT((#193));
#182=PRESENTATION_STYLE_ASSIGNMENT((#194));
#183=PRESENTATION_STYLE_ASSIGNMENT((#195));
#184=PRESENTATION_STYLE_ASSIGNMENT((#196));
#185=PRESENTATION_STYLE_ASSIGNMENT((#197));
#186=PRESENTATION_STYLE_ASSIGNMENT((#198));
#187=PRESENTATION_STYLE_ASSIGNMENT((#199));
#188=PRESENTATION_STYLE_ASSIGNMENT((#200));
#189=PRESENTATION_STYLE_ASSIGNMENT((#201));
#190=PRESENTATION_STYLE_ASSIGNMENT((#202));
#191=SURFACE_STYLE_USAGE(.BOTH.,#203);
#192=SURFACE_STYLE_USAGE(.BOTH.,#204);
#193=SURFACE_STYLE_USAGE(.BOTH.,#205);
#194=SURFACE_STYLE_USAGE(.BOTH.,#206);
#195=SURFACE_STYLE_USAGE(.BOTH.,#207);
#196=SURFACE_STYLE_USAGE(.BOTH.,#208);
#197=SURFACE_STYLE_USAGE(.BOTH.,#209);
#198=SURFACE_STYLE_USAGE(.BOTH.,#210);
#199=SURFACE_STYLE_USAGE(.BOTH.,#211);
#200=SURFACE_STYLE_USAGE(.BOTH.,#212);
#201=SURFACE_STYLE_USAGE(.BOTH.,#213);
#202=SURFACE_STYLE_USAGE(.BOTH.,#214);
#203=SURFACE_SIDE_STYLE('',(#215));
#204=SURFACE_SIDE_STYLE('',(#216));
#205=SURFACE_SIDE_STYLE('',(#217));
#206=SURFACE_SIDE_STYLE('',(#218));
#207=SURFACE_SIDE_STYLE('',(#219));
#208=SURFACE_SIDE_STYLE('',(#220));
#209=SURFACE_SIDE_STYLE('',(#221));
#210=SURFACE_SIDE_STYLE('',(#222));
#211=SURFACE_SIDE_STYLE('',(#223));
#212=SURFACE_SIDE_STYLE('',(#224));
#213=SURFACE_SIDE_STYLE('',(#225));
#214=SURFACE_SIDE_STYLE('',(#226));
#215=SURFACE_STYLE_FILL_AREA(#227);
#216=SURFACE_STYLE_FILL_AREA(#228);
#217=SURFACE_STYLE_FILL_AREA(#229);
#218=SURFACE_STYLE_FILL_AREA(#230);
#219=SURFACE_STYLE_FILL_AREA(#231);
#220=SURFACE_STYLE_FILL_AREA(#232);
#221=SURFACE_STYLE_FILL_AREA(#233);
#222=SURFACE_STYLE_FILL_AREA(#234);
#223=SURFACE_STYLE_FILL_AREA(#235);
#224=SURFACE_STYLE_FILL_AREA(#236);
#225=SURFACE_STYLE_FILL_AREA(#237);
#226=SURFACE_STYLE_FILL_AREA(#238);
#227=FILL_AREA_STYLE('',(#239));
#228=FILL_AREA_STYLE('',(#240));
#229=FILL_AREA_STYLE('',(#241));
#230=FILL_AREA_STYLE('',(#242));
#231=FILL_AREA_STYLE('',(#243));
#232=FILL_AREA_STYLE('',(#244));
#233=FILL_AREA_STYLE('',(#245));
#234=FILL_AREA_STYLE('',(#246));
#235=FILL_AREA_STYLE('',(#247));
#236=FILL_AREA_STYLE('',(#248));
#237=FILL_AREA_STYLE('',(#249));
#238=FILL_AREA_STYLE('',(#250));
#239=FILL_AREA_STYLE_COLOUR('',#251);
#240=FILL_AREA_STYLE_COLOUR('',#251);
#241=FILL_AREA_STYLE_COLOUR('',#252);
#242=FILL_AREA_STYLE_COLOUR('',#252);
#243=FILL_AREA_STYLE_COLOUR('',#252);
#244=FILL_AREA_STYLE_COLOUR('',#252);
#245=FILL_AREA_STYLE_COLOUR('',#252);
#246=FILL_AREA_STYLE_COLOUR('',#252);
#247=FILL_AREA_STYLE_COLOUR('',#252);
#248=FILL_AREA_STYLE_COLOUR('',#252);
#249=FILL_AREA_STYLE_COLOUR('',#252);
#250=FILL_AREA_STYLE_COLOUR('',#251);
#251=COLOUR_RGB('',0.1875,0.75,0.581249892711639);
#252=COLOUR_RGB('',0.331739127635956,0.340869575738907,0.349999994039536);
#253=ADVANCED_FACE('',(#130,#131),#160,.F.);
#254=ADVANCED_FACE('',(#132,#133),#161,.F.);
#255=ADVANCED_FACE('',(#134,#135),#162,.T.);
#256=ADVANCED_FACE('',(#136,#137,#138,#139,#140),#21,.F.);
#257=ADVANCED_FACE('',(#141,#142),#163,.T.);
#258=ADVANCED_FACE('',(#143,#144),#20,.T.);
#259=ADVANCED_FACE('',(#145,#146),#22,.F.);
#260=ADVANCED_FACE('',(#147,#148),#164,.F.);
#261=ADVANCED_FACE('',(#149,#150),#23,.F.);
#262=ADVANCED_FACE('',(#151,#152),#165,.T.);
#263=ADVANCED_FACE('',(#153,#154,#155,#156,#157),#24,.F.);
#264=ADVANCED_FACE('',(#158,#159),#166,.F.);
#265=CLOSED_SHELL('',(#253,#254,#255,#256,#257,#258,#259,#260,#261,#262,
#263,#264));
#266=MANIFOLD_SOLID_BREP('',#265);
#267=SHAPE_DEFINITION_REPRESENTATION(#402,#268);
#268=SHAPE_REPRESENTATION('fourrure',(#269),#397);
#269=AXIS2_PLACEMENT_3D('',#353,#297,#298);
#270=AXIS2_PLACEMENT_3D('',#354,#299,#300);
#271=AXIS2_PLACEMENT_3D('',#355,#301,#302);
#272=AXIS2_PLACEMENT_3D('',#357,#303,#304);
#273=AXIS2_PLACEMENT_3D('',#359,#305,#306);
#274=AXIS2_PLACEMENT_3D('',#360,#307,#308);
#275=AXIS2_PLACEMENT_3D('',#362,#309,#310);
#276=AXIS2_PLACEMENT_3D('',#364,#311,#312);
#277=AXIS2_PLACEMENT_3D('',#365,#313,#314);
#278=AXIS2_PLACEMENT_3D('',#367,#315,#316);
#279=AXIS2_PLACEMENT_3D('',#369,#317,#318);
#280=AXIS2_PLACEMENT_3D('',#370,#319,#320);
#281=AXIS2_PLACEMENT_3D('',#372,#321,#322);
#282=AXIS2_PLACEMENT_3D('',#374,#323,#324);
#283=AXIS2_PLACEMENT_3D('',#375,#325,#326);
#284=AXIS2_PLACEMENT_3D('',#377,#327,#328);
#285=AXIS2_PLACEMENT_3D('',#378,#329,#330);
#286=AXIS2_PLACEMENT_3D('',#380,#331,#332);
#287=AXIS2_PLACEMENT_3D('',#381,#333,#334);
#288=AXIS2_PLACEMENT_3D('',#383,#335,#336);
#289=AXIS2_PLACEMENT_3D('',#384,#337,#338);
#290=AXIS2_PLACEMENT_3D('',#386,#339,#340);
#291=AXIS2_PLACEMENT_3D('',#387,#341,#342);
#292=AXIS2_PLACEMENT_3D('',#389,#343,#344);
#293=AXIS2_PLACEMENT_3D('',#390,#345,#346);
#294=AXIS2_PLACEMENT_3D('',#392,#347,#348);
#295=AXIS2_PLACEMENT_3D('',#393,#349,#350);
#296=AXIS2_PLACEMENT_3D('',#395,#351,#352);
#297=DIRECTION('',(0.,0.,1.));
#298=DIRECTION('',(1.,0.,0.));
#299=DIRECTION('',(6.12303176911189E-17,1.,1.33917876593058E-16));
#300=DIRECTION('',(0.866025403784439,1.39319276942285E-17,-0.5));
#301=DIRECTION('',(6.12303176911189E-17,1.,1.33917876593058E-16));
#302=DIRECTION('',(0.866025403784439,1.39319276942285E-17,-0.5));
#303=DIRECTION('',(9.18454765366783E-17,1.,1.86944887195359E-16));
#304=DIRECTION('',(-0.5,2.07821759687136E-16,-0.866025403784439));
#305=DIRECTION('',(6.12303176911189E-17,1.,1.33917876593058E-16));
#306=DIRECTION('',(-0.866025403784438,1.1998594889883E-16,-0.5));
#307=DIRECTION('',(6.12303176911189E-17,1.,1.33917876593058E-16));
#308=DIRECTION('',(-0.866025403784438,1.1998594889883E-16,-0.5));
#309=DIRECTION('',(9.18454765366783E-17,1.,8.08908659907577E-17));
#310=DIRECTION('',(-0.5,-2.41308066137796E-17,0.866025403784438));
#311=DIRECTION('',(-6.12303176911189E-17,-1.,-1.33917876593058E-16));
#312=DIRECTION('',(0.,1.33917876593058E-16,-1.));
#313=DIRECTION('',(-6.12303176911189E-17,-1.,-1.33917876593058E-16));
#314=DIRECTION('',(0.,1.33917876593058E-16,-1.));
#315=DIRECTION('',(-6.12303176911189E-17,-1.,-1.33917876593058E-16));
#316=DIRECTION('',(0.,1.33917876593058E-16,-1.));
#317=DIRECTION('',(6.12303176911189E-17,1.,1.33917876593058E-16));
#318=DIRECTION('',(0.,-1.33917876593058E-16,1.));
#319=DIRECTION('',(6.12303176911189E-17,1.,1.33917876593058E-16));
#320=DIRECTION('',(0.,-1.33917876593058E-16,1.));
#321=DIRECTION('',(-6.12303176911189E-17,-1.,-1.33917876593058E-16));
#322=DIRECTION('',(0.,1.33917876593058E-16,-1.));
#323=DIRECTION('',(-6.12303176911189E-17,-1.,-1.33917876593058E-16));
#324=DIRECTION('',(0.,1.33917876593058E-16,-1.));
#325=DIRECTION('',(-6.12303176911189E-17,-1.,-1.33917876593058E-16));
#326=DIRECTION('',(0.,1.33917876593058E-16,-1.));
#327=DIRECTION('',(6.12303176911189E-17,1.,1.33917876593058E-16));
#328=DIRECTION('',(0.,-1.33917876593058E-16,1.));
#329=DIRECTION('',(-6.12303176911189E-17,-1.,-1.33917876593058E-16));
#330=DIRECTION('',(0.,1.33917876593058E-16,-1.));
#331=DIRECTION('',(6.12303176911189E-17,1.,1.33917876593058E-16));
#332=DIRECTION('',(0.,-1.33917876593058E-16,1.));
#333=DIRECTION('',(-6.12303176911189E-17,-1.,-1.33917876593058E-16));
#334=DIRECTION('',(0.,1.33917876593058E-16,-1.));
#335=DIRECTION('',(-6.12303176911189E-17,-1.,-1.33917876593058E-16));
#336=DIRECTION('',(0.,1.33917876593058E-16,-1.));
#337=DIRECTION('',(-6.12303176911189E-17,-1.,-1.33917876593058E-16));
#338=DIRECTION('',(0.,1.33917876593058E-16,-1.));
#339=DIRECTION('',(-6.12303176911189E-17,-1.,-1.33917876593058E-16));
#340=DIRECTION('',(0.,1.33917876593058E-16,-1.));
#341=DIRECTION('',(-6.12303176911189E-17,-1.,-1.33917876593058E-16));
#342=DIRECTION('',(0.,1.33917876593058E-16,-1.));
#343=DIRECTION('',(-6.12303176911189E-17,-1.,-1.33917876593058E-16));
#344=DIRECTION('',(0.,1.33917876593058E-16,-1.));
#345=DIRECTION('',(-6.12303176911189E-17,-1.,-1.33917876593058E-16));
#346=DIRECTION('',(0.,1.33917876593058E-16,-1.));
#347=DIRECTION('',(-6.12303176911189E-17,-1.,-1.33917876593058E-16));
#348=DIRECTION('',(0.,1.33917876593058E-16,-1.));
#349=DIRECTION('',(0.,1.,1.33917876593058E-16));
#350=DIRECTION('',(1.,0.,0.));
#351=DIRECTION('',(6.12303176911189E-17,1.,1.33917876593058E-16));
#352=DIRECTION('',(0.,-1.33917876593058E-16,1.));
#353=CARTESIAN_POINT('',(0.,0.,0.));
#354=CARTESIAN_POINT('',(-12.1243556529821,-159.606493164276,6.99999999999997));
#355=CARTESIAN_POINT('',(-12.1243556529821,-102.,6.99999999999998));
#356=CARTESIAN_POINT('',(-10.3342811433597,-102.,5.96649999999998));
#357=CARTESIAN_POINT('',(-12.1243556529821,-97.9999999999999,6.99999999999998));
#358=CARTESIAN_POINT('',(-13.1578556529821,-97.9999999999999,5.20992549037754));
#359=CARTESIAN_POINT('',(12.1243556529821,-159.606493164276,6.99999999999998));
#360=CARTESIAN_POINT('',(12.1243556529821,-102.,6.99999999999999));
#361=CARTESIAN_POINT('',(10.3342811433597,-102.,5.96649999999999));
#362=CARTESIAN_POINT('',(12.1243556529821,-97.9999999999999,6.99999999999999));
#363=CARTESIAN_POINT('',(11.0908556529821,-97.9999999999999,8.79007450962242));
#364=CARTESIAN_POINT('',(0.,0.,0.));
#365=CARTESIAN_POINT('',(-6.24549240449412E-15,-102.,-1.36596234124919E-14));
#366=CARTESIAN_POINT('',(-6.24549240449412E-15,-102.,-20.));
#367=CARTESIAN_POINT('',(-6.00057113372964E-15,-97.9999999999999,-1.31239519061197E-14));
#368=CARTESIAN_POINT('',(-6.00057113372964E-15,-97.9999999999999,-20.));
#369=CARTESIAN_POINT('',(-6.24549240449412E-15,-102.,20.));
#370=CARTESIAN_POINT('',(-5.57216868178654E-15,-102.,-14.));
#371=CARTESIAN_POINT('',(-5.57216868178654E-15,-102.,-11.933));
#372=CARTESIAN_POINT('',(-6.24549240449412E-15,-102.,-1.36596234124919E-14));
#373=CARTESIAN_POINT('',(-6.24549240449412E-15,-102.,-5.99999999999998));
#374=CARTESIAN_POINT('',(0.,0.,0.));
#375=CARTESIAN_POINT('',(-7.32314599585781E-15,-119.6,-1.60165780405298E-14));
#376=CARTESIAN_POINT('',(-7.32314599585781E-15,-119.6,-5.99999999999998));
#377=CARTESIAN_POINT('',(-7.32314599585781E-15,-119.6,-1.60165780405298E-14));
#378=CARTESIAN_POINT('',(-7.37213025001071E-15,-120.4,-1.61237123418042E-14));
#379=CARTESIAN_POINT('',(-7.37213025001071E-15,-120.4,-5.19999999999997));
#380=CARTESIAN_POINT('',(-7.37213025001071E-15,-120.4,5.19999999999993));
#381=CARTESIAN_POINT('',(-7.37213025001071E-15,-120.4,-1.61237123418042E-14));
#382=CARTESIAN_POINT('',(-7.37213025001071E-15,-120.4,-4.00000000000004));
#383=CARTESIAN_POINT('',(0.,0.,0.));
#384=CARTESIAN_POINT('',(-5.87811049834741E-15,-95.9999999999999,-1.28561161529336E-14));
#385=CARTESIAN_POINT('',(-5.87811049834741E-15,-95.9999999999999,-4.00000000000003));
#386=CARTESIAN_POINT('',(-5.87811049834741E-15,-95.9999999999999,8.));
#387=CARTESIAN_POINT('',(-5.87811049834741E-15,-95.9999999999999,-1.28561161529336E-14));
#388=CARTESIAN_POINT('',(-5.87811049834741E-15,-95.9999999999999,-8.00000000000003));
#389=CARTESIAN_POINT('',(0.,0.,0.));
#390=CARTESIAN_POINT('',(-6.00057113372964E-15,-97.9999999999999,-1.31239519061197E-14));
#391=CARTESIAN_POINT('',(-6.00057113372964E-15,-97.9999999999999,-8.00000000000003));
#392=CARTESIAN_POINT('',(-6.00057113372964E-15,-97.9999999999999,20.));
#393=CARTESIAN_POINT('',(-5.32724741102207E-15,-97.9999999999999,-14.));
#394=CARTESIAN_POINT('',(2.06699999999999,-97.9999999999999,-14.));
#395=CARTESIAN_POINT('',(-9.09943255930644E-15,-159.606493164276,-14.));
#396=MECHANICAL_DESIGN_GEOMETRIC_PRESENTATION_REPRESENTATION('',(#167,#168,
#169,#170,#171,#172,#173,#174,#175,#176,#177,#178),#397);
#397=(
GEOMETRIC_REPRESENTATION_CONTEXT(3)
GLOBAL_UNCERTAINTY_ASSIGNED_CONTEXT((#398))
GLOBAL_UNIT_ASSIGNED_CONTEXT((#401,#400,#399))
REPRESENTATION_CONTEXT('fourrure','TOP_LEVEL_ASSEMBLY_PART')
);
#398=UNCERTAINTY_MEASURE_WITH_UNIT(LENGTH_MEASURE(0.005),#401,
'DISTANCE_ACCURACY_VALUE','Maximum Tolerance applied to model');
#399=(
NAMED_UNIT(*)
SI_UNIT($,.STERADIAN.)
SOLID_ANGLE_UNIT()
);
#400=(
NAMED_UNIT(*)
PLANE_ANGLE_UNIT()
SI_UNIT($,.RADIAN.)
);
#401=(
LENGTH_UNIT()
NAMED_UNIT(*)
SI_UNIT(.MILLI.,.METRE.)
);
#402=PRODUCT_DEFINITION_SHAPE('','',#403);
#403=PRODUCT_DEFINITION('','',#405,#404);
#404=PRODUCT_DEFINITION_CONTEXT('',#411,'design');
#405=PRODUCT_DEFINITION_FORMATION_WITH_SPECIFIED_SOURCE('','',#407,
 .NOT_KNOWN.);
#406=PRODUCT_RELATED_PRODUCT_CATEGORY('','',(#407));
#407=PRODUCT('fourrure','fourrure','fourrure',(#409));
#408=PRODUCT_CATEGORY('','');
#409=PRODUCT_CONTEXT('',#411,'mechanical');
#410=APPLICATION_PROTOCOL_DEFINITION('international standard',
'automotive_design',2010,#411);
#411=APPLICATION_CONTEXT(
'core data for automotive mechanical design processes');
ENDSEC;
END-ISO-10303-21;
