ISO-10303-21;
HEADER;
FILE_DESCRIPTION(('CATIA V5 STEP Exchange'),'2;1');

FILE_NAME('C:\\Users\\Rivet\\Documents\\C2PU\\Hardware\\TX_W_Telescope_EnsembleFocal_2015\\Focuseur_MotoReducteur\\Modele_CATIA_v04_Crouzet82474_83\\CATDrawings\\Usineur_fr\\MotoReducteur_Entretoise_Fendue.stp','2020-11-26T11:35:29+00:00',('none'),('none'),'CATIA Version 5-6 Release 2017 SP5','CATIA V5 STEP AP203','none');

FILE_SCHEMA(('CONFIG_CONTROL_DESIGN'));

ENDSEC;
DATA;
#5=PRODUCT('MotoReducteur_Entretoise_Fendue','01.03.009.001.007','',(#2)) ;
#1=APPLICATION_CONTEXT('configuration controlled 3D design of mechanical parts and assemblies') ;
#14=PRODUCT_DEFINITION('Motor\X2\00E9\X0\ducteur: Entretoise fendue',' ',#6,#3) ;
#16=SECURITY_CLASSIFICATION(' ',' ',#15) ;
#15=SECURITY_CLASSIFICATION_LEVEL('unclassified') ;
#46=CARTESIAN_POINT(' ',(0.,0.,0.)) ;
#51=CARTESIAN_POINT('Axis2P3D Location',(0.,-0.4,7.2)) ;
#56=CARTESIAN_POINT('Line Origine',(2.06155281281,-0.4,5.7)) ;
#60=CARTESIAN_POINT('Vertex',(2.06155281281,-0.4,7.2)) ;
#62=CARTESIAN_POINT('Vertex',(2.06155281281,-0.4,4.2)) ;
#65=CARTESIAN_POINT('Line Origine',(0.,-0.4,4.2)) ;
#69=CARTESIAN_POINT('Vertex',(-2.06155281281,-0.4,4.2)) ;
#72=CARTESIAN_POINT('Line Origine',(-2.06155281281,-0.4,5.7)) ;
#76=CARTESIAN_POINT('Vertex',(-2.06155281281,-0.4,7.2)) ;
#79=CARTESIAN_POINT('Line Origine',(0.,-0.4,7.2)) ;
#91=CARTESIAN_POINT('Axis2P3D Location',(0.,2.1,0.)) ;
#96=CARTESIAN_POINT('Axis2P3D Location',(0.,0.,0.)) ;
#100=CARTESIAN_POINT('Vertex',(-1.00679363107,1.84292337997,0.)) ;
#102=CARTESIAN_POINT('Vertex',(1.00679363107,-1.84292337997,0.)) ;
#105=CARTESIAN_POINT('Axis2P3D Location',(0.,0.,0.)) ;
#114=CARTESIAN_POINT('Axis2P3D Location',(0.,0.,0.)) ;
#118=CARTESIAN_POINT('Vertex',(0.383540430883,-0.702066049512,0.)) ;
#120=CARTESIAN_POINT('Vertex',(-0.383540430883,0.702066049512,0.)) ;
#123=CARTESIAN_POINT('Axis2P3D Location',(0.,0.,0.)) ;
#133=CARTESIAN_POINT('Axis2P3D Location',(0.,0.,4.65000000037)) ;
#138=CARTESIAN_POINT('Line Origine',(0.383540430883,-0.702066049512,4.65)) ;
#142=CARTESIAN_POINT('Vertex',(0.383540430883,-0.702066049512,-2.3)) ;
#145=CARTESIAN_POINT('Line Origine',(-0.383540430883,0.702066049512,4.65)) ;
#149=CARTESIAN_POINT('Vertex',(-0.383540430883,0.702066049512,-2.3)) ;
#152=CARTESIAN_POINT('Axis2P3D Location',(0.,0.,-2.3)) ;
#164=CARTESIAN_POINT('Axis2P3D Location',(0.,0.,-2.3)) ;
#176=CARTESIAN_POINT('Axis2P3D Location',(0.,0.8,-2.3)) ;
#186=CARTESIAN_POINT('Axis2P3D Location',(0.,0.,11.6)) ;
#191=CARTESIAN_POINT('Axis2P3D Location',(0.,0.,11.6)) ;
#195=CARTESIAN_POINT('Vertex',(0.383540430883,-0.702066049512,11.6)) ;
#197=CARTESIAN_POINT('Vertex',(-0.383540430883,0.702066049512,11.6)) ;
#200=CARTESIAN_POINT('Axis2P3D Location',(0.,0.,11.6)) ;
#210=CARTESIAN_POINT('Line Origine',(0.383540430883,-0.702066049512,4.65)) ;
#214=CARTESIAN_POINT('Vertex',(0.383540430883,-0.702066049512,11.1)) ;
#217=CARTESIAN_POINT('Line Origine',(-0.383540430883,0.702066049512,4.65)) ;
#221=CARTESIAN_POINT('Vertex',(-0.383540430883,0.702066049512,11.1)) ;
#224=CARTESIAN_POINT('Axis2P3D Location',(0.,0.,11.1)) ;
#236=CARTESIAN_POINT('Axis2P3D Location',(0.,0.,11.1)) ;
#248=CARTESIAN_POINT('Axis2P3D Location',(0.,0.8,11.1)) ;
#257=CARTESIAN_POINT('Axis2P3D Location',(0.,0.,11.1)) ;
#261=CARTESIAN_POINT('Vertex',(0.321215110865,-0.587980316467,11.1)) ;
#263=CARTESIAN_POINT('Vertex',(-0.321215110865,0.587980316467,11.1)) ;
#266=CARTESIAN_POINT('Axis2P3D Location',(0.,0.,11.1)) ;
#276=CARTESIAN_POINT('Axis2P3D Location',(0.,0.,4.65000000037)) ;
#281=CARTESIAN_POINT('Line Origine',(-0.321215110865,0.587980316467,10.8)) ;
#285=CARTESIAN_POINT('Vertex',(-0.321215110865,0.587980316467,10.5)) ;
#288=CARTESIAN_POINT('Line Origine',(0.321215110865,-0.587980316467,10.8)) ;
#292=CARTESIAN_POINT('Vertex',(0.321215110865,-0.587980316467,10.5)) ;
#295=CARTESIAN_POINT('Axis2P3D Location',(0.,0.,10.5)) ;
#307=CARTESIAN_POINT('Axis2P3D Location',(0.,0.,10.5)) ;
#319=CARTESIAN_POINT('Axis2P3D Location',(0.,0.67,10.5)) ;
#324=CARTESIAN_POINT('Axis2P3D Location',(0.,0.,10.5)) ;
#328=CARTESIAN_POINT('Vertex',(0.383540430883,-0.702066049512,10.5)) ;
#330=CARTESIAN_POINT('Vertex',(-0.383540430883,0.702066049512,10.5)) ;
#333=CARTESIAN_POINT('Axis2P3D Location',(0.,0.,10.5)) ;
#347=CARTESIAN_POINT('Line Origine',(-0.383540430883,0.702066049512,4.65)) ;
#351=CARTESIAN_POINT('Vertex',(-0.383540430883,0.702066049512,9.)) ;
#354=CARTESIAN_POINT('Line Origine',(0.383540430883,-0.702066049512,4.65)) ;
#358=CARTESIAN_POINT('Vertex',(0.383540430883,-0.702066049512,9.)) ;
#361=CARTESIAN_POINT('Axis2P3D Location',(0.,0.,9.)) ;
#373=CARTESIAN_POINT('Axis2P3D Location',(0.,0.,9.)) ;
#385=CARTESIAN_POINT('Axis2P3D Location',(0.,0.8,9.)) ;
#390=CARTESIAN_POINT('Axis2P3D Location',(0.,0.,9.)) ;
#394=CARTESIAN_POINT('Vertex',(1.00679363107,-1.84292337997,9.)) ;
#396=CARTESIAN_POINT('Vertex',(-1.00679363107,1.84292337997,9.)) ;
#399=CARTESIAN_POINT('Axis2P3D Location',(0.,0.,9.)) ;
#413=CARTESIAN_POINT('Axis2P3D Location',(0.,0.,4.65000000037)) ;
#418=CARTESIAN_POINT('Line Origine',(-1.00679363107,1.84292337997,4.5)) ;
#422=CARTESIAN_POINT('Vertex',(-1.00679363107,1.84292337997,4.2)) ;
#425=CARTESIAN_POINT('Line Origine',(1.00679363107,-1.84292337997,4.5)) ;
#430=CARTESIAN_POINT('Line Origine',(-1.00679363107,1.84292337997,4.5)) ;
#434=CARTESIAN_POINT('Vertex',(-1.00679363107,1.84292337997,7.2)) ;
#437=CARTESIAN_POINT('Axis2P3D Location',(0.,0.,7.2)) ;
#442=CARTESIAN_POINT('Axis2P3D Location',(0.,0.,4.2)) ;
#458=CARTESIAN_POINT('Axis2P3D Location',(0.,0.,4.2)) ;
#463=CARTESIAN_POINT('Axis2P3D Location',(0.,0.,7.2)) ;
#479=CARTESIAN_POINT('Axis2P3D Location',(0.,2.1,4.2)) ;
#490=CARTESIAN_POINT('Axis2P3D Location',(0.,-0.4,7.2)) ;
#52=DIRECTION('Axis2P3D Direction',(0.,1.,0.)) ;
#53=DIRECTION('Axis2P3D XDirection',(0.,0.,-1.)) ;
#57=DIRECTION('Vector Direction',(0.,0.,-1.)) ;
#66=DIRECTION('Vector Direction',(-1.,0.,0.)) ;
#73=DIRECTION('Vector Direction',(0.,0.,-1.)) ;
#80=DIRECTION('Vector Direction',(-1.,0.,0.)) ;
#92=DIRECTION('Axis2P3D Direction',(0.,0.,1.)) ;
#93=DIRECTION('Axis2P3D XDirection',(1.,0.,0.)) ;
#97=DIRECTION('Axis2P3D Direction',(0.,0.,1.)) ;
#106=DIRECTION('Axis2P3D Direction',(0.,0.,1.)) ;
#115=DIRECTION('Axis2P3D Direction',(0.,0.,1.)) ;
#124=DIRECTION('Axis2P3D Direction',(0.,0.,1.)) ;
#134=DIRECTION('Axis2P3D Direction',(0.,0.,1.)) ;
#135=DIRECTION('Axis2P3D XDirection',(-0.479425538604,0.87758256189,0.)) ;
#139=DIRECTION('Vector Direction',(0.,0.,1.)) ;
#146=DIRECTION('Vector Direction',(0.,0.,1.)) ;
#153=DIRECTION('Axis2P3D Direction',(0.,0.,1.)) ;
#165=DIRECTION('Axis2P3D Direction',(0.,0.,1.)) ;
#177=DIRECTION('Axis2P3D Direction',(0.,0.,1.)) ;
#178=DIRECTION('Axis2P3D XDirection',(1.,0.,0.)) ;
#187=DIRECTION('Axis2P3D Direction',(0.,0.,1.)) ;
#188=DIRECTION('Axis2P3D XDirection',(1.,0.,0.)) ;
#192=DIRECTION('Axis2P3D Direction',(0.,0.,1.)) ;
#201=DIRECTION('Axis2P3D Direction',(0.,0.,1.)) ;
#211=DIRECTION('Vector Direction',(0.,0.,1.)) ;
#218=DIRECTION('Vector Direction',(0.,0.,1.)) ;
#225=DIRECTION('Axis2P3D Direction',(0.,0.,1.)) ;
#237=DIRECTION('Axis2P3D Direction',(0.,0.,1.)) ;
#249=DIRECTION('Axis2P3D Direction',(0.,0.,1.)) ;
#250=DIRECTION('Axis2P3D XDirection',(1.,0.,0.)) ;
#258=DIRECTION('Axis2P3D Direction',(0.,0.,1.)) ;
#267=DIRECTION('Axis2P3D Direction',(0.,0.,1.)) ;
#277=DIRECTION('Axis2P3D Direction',(0.,0.,1.)) ;
#278=DIRECTION('Axis2P3D XDirection',(-0.479425538604,0.87758256189,0.)) ;
#282=DIRECTION('Vector Direction',(0.,0.,1.)) ;
#289=DIRECTION('Vector Direction',(0.,0.,1.)) ;
#296=DIRECTION('Axis2P3D Direction',(0.,0.,1.)) ;
#308=DIRECTION('Axis2P3D Direction',(0.,0.,1.)) ;
#320=DIRECTION('Axis2P3D Direction',(0.,0.,1.)) ;
#321=DIRECTION('Axis2P3D XDirection',(1.,0.,0.)) ;
#325=DIRECTION('Axis2P3D Direction',(0.,0.,1.)) ;
#334=DIRECTION('Axis2P3D Direction',(0.,0.,1.)) ;
#348=DIRECTION('Vector Direction',(0.,0.,1.)) ;
#355=DIRECTION('Vector Direction',(0.,0.,1.)) ;
#362=DIRECTION('Axis2P3D Direction',(0.,0.,1.)) ;
#374=DIRECTION('Axis2P3D Direction',(0.,0.,1.)) ;
#386=DIRECTION('Axis2P3D Direction',(0.,0.,1.)) ;
#387=DIRECTION('Axis2P3D XDirection',(1.,0.,0.)) ;
#391=DIRECTION('Axis2P3D Direction',(0.,0.,1.)) ;
#400=DIRECTION('Axis2P3D Direction',(0.,0.,1.)) ;
#414=DIRECTION('Axis2P3D Direction',(0.,0.,1.)) ;
#415=DIRECTION('Axis2P3D XDirection',(-0.479425538604,0.87758256189,0.)) ;
#419=DIRECTION('Vector Direction',(0.,0.,1.)) ;
#426=DIRECTION('Vector Direction',(0.,0.,1.)) ;
#431=DIRECTION('Vector Direction',(0.,0.,1.)) ;
#438=DIRECTION('Axis2P3D Direction',(0.,0.,1.)) ;
#443=DIRECTION('Axis2P3D Direction',(0.,0.,1.)) ;
#459=DIRECTION('Axis2P3D Direction',(0.,0.,1.)) ;
#464=DIRECTION('Axis2P3D Direction',(0.,0.,1.)) ;
#480=DIRECTION('Axis2P3D Direction',(-0.,-0.,-1.)) ;
#481=DIRECTION('Axis2P3D XDirection',(0.,-1.,0.)) ;
#491=DIRECTION('Axis2P3D Direction',(0.,-0.,1.)) ;
#492=DIRECTION('Axis2P3D XDirection',(0.,1.,0.)) ;
#47=AXIS2_PLACEMENT_3D(' ',#46,$,$) ;
#54=AXIS2_PLACEMENT_3D('Plane Axis2P3D',#51,#52,#53) ;
#94=AXIS2_PLACEMENT_3D('Plane Axis2P3D',#91,#92,#93) ;
#98=AXIS2_PLACEMENT_3D('Circle Axis2P3D',#96,#97,$) ;
#107=AXIS2_PLACEMENT_3D('Circle Axis2P3D',#105,#106,$) ;
#116=AXIS2_PLACEMENT_3D('Circle Axis2P3D',#114,#115,$) ;
#125=AXIS2_PLACEMENT_3D('Circle Axis2P3D',#123,#124,$) ;
#136=AXIS2_PLACEMENT_3D('Cylinder Axis2P3D',#133,#134,#135) ;
#154=AXIS2_PLACEMENT_3D('Circle Axis2P3D',#152,#153,$) ;
#166=AXIS2_PLACEMENT_3D('Circle Axis2P3D',#164,#165,$) ;
#179=AXIS2_PLACEMENT_3D('Plane Axis2P3D',#176,#177,#178) ;
#189=AXIS2_PLACEMENT_3D('Plane Axis2P3D',#186,#187,#188) ;
#193=AXIS2_PLACEMENT_3D('Circle Axis2P3D',#191,#192,$) ;
#202=AXIS2_PLACEMENT_3D('Circle Axis2P3D',#200,#201,$) ;
#226=AXIS2_PLACEMENT_3D('Circle Axis2P3D',#224,#225,$) ;
#238=AXIS2_PLACEMENT_3D('Circle Axis2P3D',#236,#237,$) ;
#251=AXIS2_PLACEMENT_3D('Plane Axis2P3D',#248,#249,#250) ;
#259=AXIS2_PLACEMENT_3D('Circle Axis2P3D',#257,#258,$) ;
#268=AXIS2_PLACEMENT_3D('Circle Axis2P3D',#266,#267,$) ;
#279=AXIS2_PLACEMENT_3D('Cylinder Axis2P3D',#276,#277,#278) ;
#297=AXIS2_PLACEMENT_3D('Circle Axis2P3D',#295,#296,$) ;
#309=AXIS2_PLACEMENT_3D('Circle Axis2P3D',#307,#308,$) ;
#322=AXIS2_PLACEMENT_3D('Plane Axis2P3D',#319,#320,#321) ;
#326=AXIS2_PLACEMENT_3D('Circle Axis2P3D',#324,#325,$) ;
#335=AXIS2_PLACEMENT_3D('Circle Axis2P3D',#333,#334,$) ;
#363=AXIS2_PLACEMENT_3D('Circle Axis2P3D',#361,#362,$) ;
#375=AXIS2_PLACEMENT_3D('Circle Axis2P3D',#373,#374,$) ;
#388=AXIS2_PLACEMENT_3D('Plane Axis2P3D',#385,#386,#387) ;
#392=AXIS2_PLACEMENT_3D('Circle Axis2P3D',#390,#391,$) ;
#401=AXIS2_PLACEMENT_3D('Circle Axis2P3D',#399,#400,$) ;
#416=AXIS2_PLACEMENT_3D('Cylinder Axis2P3D',#413,#414,#415) ;
#439=AXIS2_PLACEMENT_3D('Circle Axis2P3D',#437,#438,$) ;
#444=AXIS2_PLACEMENT_3D('Circle Axis2P3D',#442,#443,$) ;
#460=AXIS2_PLACEMENT_3D('Circle Axis2P3D',#458,#459,$) ;
#465=AXIS2_PLACEMENT_3D('Circle Axis2P3D',#463,#464,$) ;
#482=AXIS2_PLACEMENT_3D('Plane Axis2P3D',#479,#480,#481) ;
#493=AXIS2_PLACEMENT_3D('Plane Axis2P3D',#490,#491,#492) ;
#40=PRODUCT_DEFINITION_SHAPE(' ',' ',#14) ;
#31=APPROVAL_PERSON_ORGANIZATION(#25,#21,#19) ;
#25=PERSON_AND_ORGANIZATION(#22,#23) ;
#22=PERSON(' ',' ',' ',$,$,$) ;
#23=ORGANIZATION(' ',' ',' ') ;
#21=APPROVAL(#20,' ') ;
#20=APPROVAL_STATUS('not_yet_approved') ;
#19=APPROVAL_ROLE('APPROVER') ;
#13=DATE_AND_TIME(#11,#12) ;
#12=LOCAL_TIME(12,35,29.,#10) ;
#10=COORDINATED_UNIVERSAL_TIME_OFFSET(0,0,.AHEAD.) ;
#85=ORIENTED_EDGE('',*,*,#64,.T.) ;
#86=ORIENTED_EDGE('',*,*,#71,.T.) ;
#87=ORIENTED_EDGE('',*,*,#78,.F.) ;
#88=ORIENTED_EDGE('',*,*,#83,.F.) ;
#111=ORIENTED_EDGE('',*,*,#104,.F.) ;
#112=ORIENTED_EDGE('',*,*,#109,.F.) ;
#129=ORIENTED_EDGE('',*,*,#122,.T.) ;
#130=ORIENTED_EDGE('',*,*,#127,.T.) ;
#158=ORIENTED_EDGE('',*,*,#144,.T.) ;
#159=ORIENTED_EDGE('',*,*,#127,.F.) ;
#160=ORIENTED_EDGE('',*,*,#151,.F.) ;
#161=ORIENTED_EDGE('',*,*,#156,.T.) ;
#170=ORIENTED_EDGE('',*,*,#151,.T.) ;
#171=ORIENTED_EDGE('',*,*,#122,.F.) ;
#172=ORIENTED_EDGE('',*,*,#144,.F.) ;
#173=ORIENTED_EDGE('',*,*,#168,.T.) ;
#182=ORIENTED_EDGE('',*,*,#168,.F.) ;
#183=ORIENTED_EDGE('',*,*,#156,.F.) ;
#206=ORIENTED_EDGE('',*,*,#199,.T.) ;
#207=ORIENTED_EDGE('',*,*,#204,.T.) ;
#230=ORIENTED_EDGE('',*,*,#216,.T.) ;
#231=ORIENTED_EDGE('',*,*,#204,.F.) ;
#232=ORIENTED_EDGE('',*,*,#223,.F.) ;
#233=ORIENTED_EDGE('',*,*,#228,.T.) ;
#242=ORIENTED_EDGE('',*,*,#223,.T.) ;
#243=ORIENTED_EDGE('',*,*,#199,.F.) ;
#244=ORIENTED_EDGE('',*,*,#216,.F.) ;
#245=ORIENTED_EDGE('',*,*,#240,.T.) ;
#254=ORIENTED_EDGE('',*,*,#228,.F.) ;
#255=ORIENTED_EDGE('',*,*,#240,.F.) ;
#272=ORIENTED_EDGE('',*,*,#265,.T.) ;
#273=ORIENTED_EDGE('',*,*,#270,.T.) ;
#301=ORIENTED_EDGE('',*,*,#287,.T.) ;
#302=ORIENTED_EDGE('',*,*,#265,.F.) ;
#303=ORIENTED_EDGE('',*,*,#294,.F.) ;
#304=ORIENTED_EDGE('',*,*,#299,.T.) ;
#313=ORIENTED_EDGE('',*,*,#294,.T.) ;
#314=ORIENTED_EDGE('',*,*,#270,.F.) ;
#315=ORIENTED_EDGE('',*,*,#287,.F.) ;
#316=ORIENTED_EDGE('',*,*,#311,.T.) ;
#339=ORIENTED_EDGE('',*,*,#332,.T.) ;
#340=ORIENTED_EDGE('',*,*,#337,.T.) ;
#343=ORIENTED_EDGE('',*,*,#311,.F.) ;
#344=ORIENTED_EDGE('',*,*,#299,.F.) ;
#367=ORIENTED_EDGE('',*,*,#353,.T.) ;
#368=ORIENTED_EDGE('',*,*,#332,.F.) ;
#369=ORIENTED_EDGE('',*,*,#360,.F.) ;
#370=ORIENTED_EDGE('',*,*,#365,.T.) ;
#379=ORIENTED_EDGE('',*,*,#360,.T.) ;
#380=ORIENTED_EDGE('',*,*,#337,.F.) ;
#381=ORIENTED_EDGE('',*,*,#353,.F.) ;
#382=ORIENTED_EDGE('',*,*,#377,.T.) ;
#405=ORIENTED_EDGE('',*,*,#398,.T.) ;
#406=ORIENTED_EDGE('',*,*,#403,.T.) ;
#409=ORIENTED_EDGE('',*,*,#377,.F.) ;
#410=ORIENTED_EDGE('',*,*,#365,.F.) ;
#448=ORIENTED_EDGE('',*,*,#424,.F.) ;
#449=ORIENTED_EDGE('',*,*,#104,.T.) ;
#450=ORIENTED_EDGE('',*,*,#429,.T.) ;
#451=ORIENTED_EDGE('',*,*,#403,.F.) ;
#452=ORIENTED_EDGE('',*,*,#436,.F.) ;
#453=ORIENTED_EDGE('',*,*,#441,.T.) ;
#454=ORIENTED_EDGE('',*,*,#78,.T.) ;
#455=ORIENTED_EDGE('',*,*,#446,.T.) ;
#469=ORIENTED_EDGE('',*,*,#436,.T.) ;
#470=ORIENTED_EDGE('',*,*,#398,.F.) ;
#471=ORIENTED_EDGE('',*,*,#429,.F.) ;
#472=ORIENTED_EDGE('',*,*,#109,.T.) ;
#473=ORIENTED_EDGE('',*,*,#424,.T.) ;
#474=ORIENTED_EDGE('',*,*,#462,.T.) ;
#475=ORIENTED_EDGE('',*,*,#64,.F.) ;
#476=ORIENTED_EDGE('',*,*,#467,.T.) ;
#485=ORIENTED_EDGE('',*,*,#462,.F.) ;
#486=ORIENTED_EDGE('',*,*,#446,.F.) ;
#487=ORIENTED_EDGE('',*,*,#71,.F.) ;
#496=ORIENTED_EDGE('',*,*,#467,.F.) ;
#497=ORIENTED_EDGE('',*,*,#83,.T.) ;
#498=ORIENTED_EDGE('',*,*,#441,.F.) ;
#131=FACE_BOUND('',#128,.T.) ;
#274=FACE_BOUND('',#271,.T.) ;
#345=FACE_BOUND('',#342,.T.) ;
#411=FACE_BOUND('',#408,.T.) ;
#50=CLOSED_SHELL('Closed Shell',(#90,#132,#163,#175,#185,#209,#235,#247,#275,#306,#318,#346,#372,#384,#412,#457,#478,#489,#500)) ;
#58=VECTOR('Line Direction',#57,1.) ;
#67=VECTOR('Line Direction',#66,1.) ;
#74=VECTOR('Line Direction',#73,1.) ;
#81=VECTOR('Line Direction',#80,1.) ;
#140=VECTOR('Line Direction',#139,1.) ;
#147=VECTOR('Line Direction',#146,1.) ;
#212=VECTOR('Line Direction',#211,1.) ;
#219=VECTOR('Line Direction',#218,1.) ;
#283=VECTOR('Line Direction',#282,1.) ;
#290=VECTOR('Line Direction',#289,1.) ;
#349=VECTOR('Line Direction',#348,1.) ;
#356=VECTOR('Line Direction',#355,1.) ;
#420=VECTOR('Line Direction',#419,1.) ;
#427=VECTOR('Line Direction',#426,1.) ;
#432=VECTOR('Line Direction',#431,1.) ;
#502=ADVANCED_BREP_SHAPE_REPRESENTATION('NONE',(#501),#45) ;
#48=SHAPE_REPRESENTATION(' ',(#47),#45) ;
#90=ADVANCED_FACE('Corps principal',(#89),#55,.T.) ;
#132=ADVANCED_FACE('Corps principal',(#113,#131),#95,.F.) ;
#163=ADVANCED_FACE('Corps principal',(#162),#137,.T.) ;
#175=ADVANCED_FACE('Corps principal',(#174),#137,.T.) ;
#185=ADVANCED_FACE('Corps principal',(#184),#180,.F.) ;
#209=ADVANCED_FACE('Corps principal',(#208),#190,.T.) ;
#235=ADVANCED_FACE('Corps principal',(#234),#137,.T.) ;
#247=ADVANCED_FACE('Corps principal',(#246),#137,.T.) ;
#275=ADVANCED_FACE('Corps principal',(#256,#274),#252,.F.) ;
#306=ADVANCED_FACE('Corps principal',(#305),#280,.T.) ;
#318=ADVANCED_FACE('Corps principal',(#317),#280,.T.) ;
#346=ADVANCED_FACE('Corps principal',(#341,#345),#323,.T.) ;
#372=ADVANCED_FACE('Corps principal',(#371),#137,.T.) ;
#384=ADVANCED_FACE('Corps principal',(#383),#137,.T.) ;
#412=ADVANCED_FACE('Corps principal',(#407,#411),#389,.T.) ;
#457=ADVANCED_FACE('Corps principal',(#456),#417,.T.) ;
#478=ADVANCED_FACE('Corps principal',(#477),#417,.T.) ;
#489=ADVANCED_FACE('Corps principal',(#488),#483,.F.) ;
#500=ADVANCED_FACE('Corps principal',(#499),#494,.F.) ;
#4=APPLICATION_PROTOCOL_DEFINITION('international standard','config_control_design',1994,#1) ;
#32=APPROVAL_DATE_TIME(#13,#21) ;
#501=MANIFOLD_SOLID_BREP('Corps principal',#50) ;
#11=CALENDAR_DATE(2020,26,11) ;
#30=CC_DESIGN_APPROVAL(#21,(#16,#6,#14)) ;
#18=CC_DESIGN_DATE_AND_TIME_ASSIGNMENT(#13,#17,(#16)) ;
#29=CC_DESIGN_DATE_AND_TIME_ASSIGNMENT(#13,#28,(#14)) ;
#17=DATE_TIME_ROLE('classification_date') ;
#28=DATE_TIME_ROLE('creation_date') ;
#27=CC_DESIGN_PERSON_AND_ORGANIZATION_ASSIGNMENT(#25,#26,(#16)) ;
#33=CC_DESIGN_PERSON_AND_ORGANIZATION_ASSIGNMENT(#25,#34,(#6)) ;
#35=CC_DESIGN_PERSON_AND_ORGANIZATION_ASSIGNMENT(#25,#36,(#6,#14)) ;
#37=CC_DESIGN_PERSON_AND_ORGANIZATION_ASSIGNMENT(#25,#38,(#5)) ;
#26=PERSON_AND_ORGANIZATION_ROLE('classification_officer') ;
#34=PERSON_AND_ORGANIZATION_ROLE('design_supplier') ;
#36=PERSON_AND_ORGANIZATION_ROLE('creator') ;
#38=PERSON_AND_ORGANIZATION_ROLE('design_owner') ;
#39=CC_DESIGN_SECURITY_CLASSIFICATION(#16,(#6)) ;
#99=CIRCLE('generated circle',#98,2.1) ;
#108=CIRCLE('generated circle',#107,2.1) ;
#117=CIRCLE('generated circle',#116,0.8) ;
#126=CIRCLE('generated circle',#125,0.8) ;
#155=CIRCLE('generated circle',#154,0.8) ;
#167=CIRCLE('generated circle',#166,0.8) ;
#194=CIRCLE('generated circle',#193,0.8) ;
#203=CIRCLE('generated circle',#202,0.8) ;
#227=CIRCLE('generated circle',#226,0.8) ;
#239=CIRCLE('generated circle',#238,0.8) ;
#260=CIRCLE('generated circle',#259,0.67) ;
#269=CIRCLE('generated circle',#268,0.67) ;
#298=CIRCLE('generated circle',#297,0.67) ;
#310=CIRCLE('generated circle',#309,0.67) ;
#327=CIRCLE('generated circle',#326,0.8) ;
#336=CIRCLE('generated circle',#335,0.8) ;
#364=CIRCLE('generated circle',#363,0.8) ;
#376=CIRCLE('generated circle',#375,0.8) ;
#393=CIRCLE('generated circle',#392,2.1) ;
#402=CIRCLE('generated circle',#401,2.1) ;
#440=CIRCLE('generated circle',#439,2.1) ;
#445=CIRCLE('generated circle',#444,2.1) ;
#461=CIRCLE('generated circle',#460,2.1) ;
#466=CIRCLE('generated circle',#465,2.1) ;
#503=SHAPE_REPRESENTATION_RELATIONSHIP(' ',' ',#48,#502) ;
#137=CYLINDRICAL_SURFACE('generated cylinder',#136,0.8) ;
#280=CYLINDRICAL_SURFACE('generated cylinder',#279,0.67) ;
#417=CYLINDRICAL_SURFACE('generated cylinder',#416,2.1) ;
#3=DESIGN_CONTEXT(' ',#1,'design') ;
#64=EDGE_CURVE('',#61,#63,#59,.T.) ;
#71=EDGE_CURVE('',#63,#70,#68,.T.) ;
#78=EDGE_CURVE('',#77,#70,#75,.T.) ;
#83=EDGE_CURVE('',#61,#77,#82,.T.) ;
#104=EDGE_CURVE('',#101,#103,#99,.T.) ;
#109=EDGE_CURVE('',#103,#101,#108,.T.) ;
#122=EDGE_CURVE('',#119,#121,#117,.T.) ;
#127=EDGE_CURVE('',#121,#119,#126,.T.) ;
#144=EDGE_CURVE('',#143,#119,#141,.T.) ;
#151=EDGE_CURVE('',#150,#121,#148,.T.) ;
#156=EDGE_CURVE('',#150,#143,#155,.T.) ;
#168=EDGE_CURVE('',#143,#150,#167,.T.) ;
#199=EDGE_CURVE('',#196,#198,#194,.T.) ;
#204=EDGE_CURVE('',#198,#196,#203,.T.) ;
#216=EDGE_CURVE('',#215,#196,#213,.T.) ;
#223=EDGE_CURVE('',#222,#198,#220,.T.) ;
#228=EDGE_CURVE('',#222,#215,#227,.T.) ;
#240=EDGE_CURVE('',#215,#222,#239,.T.) ;
#265=EDGE_CURVE('',#262,#264,#260,.T.) ;
#270=EDGE_CURVE('',#264,#262,#269,.T.) ;
#287=EDGE_CURVE('',#286,#264,#284,.T.) ;
#294=EDGE_CURVE('',#293,#262,#291,.T.) ;
#299=EDGE_CURVE('',#293,#286,#298,.T.) ;
#311=EDGE_CURVE('',#286,#293,#310,.T.) ;
#332=EDGE_CURVE('',#329,#331,#327,.T.) ;
#337=EDGE_CURVE('',#331,#329,#336,.T.) ;
#353=EDGE_CURVE('',#352,#331,#350,.T.) ;
#360=EDGE_CURVE('',#359,#329,#357,.T.) ;
#365=EDGE_CURVE('',#359,#352,#364,.T.) ;
#377=EDGE_CURVE('',#352,#359,#376,.T.) ;
#398=EDGE_CURVE('',#395,#397,#393,.T.) ;
#403=EDGE_CURVE('',#397,#395,#402,.T.) ;
#424=EDGE_CURVE('',#101,#423,#421,.T.) ;
#429=EDGE_CURVE('',#103,#395,#428,.T.) ;
#436=EDGE_CURVE('',#435,#397,#433,.T.) ;
#441=EDGE_CURVE('',#435,#77,#440,.T.) ;
#446=EDGE_CURVE('',#70,#423,#445,.F.) ;
#462=EDGE_CURVE('',#423,#63,#461,.F.) ;
#467=EDGE_CURVE('',#61,#435,#466,.T.) ;
#84=EDGE_LOOP('',(#85,#86,#87,#88)) ;
#110=EDGE_LOOP('',(#111,#112)) ;
#128=EDGE_LOOP('',(#129,#130)) ;
#157=EDGE_LOOP('',(#158,#159,#160,#161)) ;
#169=EDGE_LOOP('',(#170,#171,#172,#173)) ;
#181=EDGE_LOOP('',(#182,#183)) ;
#205=EDGE_LOOP('',(#206,#207)) ;
#229=EDGE_LOOP('',(#230,#231,#232,#233)) ;
#241=EDGE_LOOP('',(#242,#243,#244,#245)) ;
#253=EDGE_LOOP('',(#254,#255)) ;
#271=EDGE_LOOP('',(#272,#273)) ;
#300=EDGE_LOOP('',(#301,#302,#303,#304)) ;
#312=EDGE_LOOP('',(#313,#314,#315,#316)) ;
#338=EDGE_LOOP('',(#339,#340)) ;
#342=EDGE_LOOP('',(#343,#344)) ;
#366=EDGE_LOOP('',(#367,#368,#369,#370)) ;
#378=EDGE_LOOP('',(#379,#380,#381,#382)) ;
#404=EDGE_LOOP('',(#405,#406)) ;
#408=EDGE_LOOP('',(#409,#410)) ;
#447=EDGE_LOOP('',(#448,#449,#450,#451,#452,#453,#454,#455)) ;
#468=EDGE_LOOP('',(#469,#470,#471,#472,#473,#474,#475,#476)) ;
#484=EDGE_LOOP('',(#485,#486,#487)) ;
#495=EDGE_LOOP('',(#496,#497,#498)) ;
#89=FACE_OUTER_BOUND('',#84,.T.) ;
#113=FACE_OUTER_BOUND('',#110,.T.) ;
#162=FACE_OUTER_BOUND('',#157,.T.) ;
#174=FACE_OUTER_BOUND('',#169,.T.) ;
#184=FACE_OUTER_BOUND('',#181,.T.) ;
#208=FACE_OUTER_BOUND('',#205,.T.) ;
#234=FACE_OUTER_BOUND('',#229,.T.) ;
#246=FACE_OUTER_BOUND('',#241,.T.) ;
#256=FACE_OUTER_BOUND('',#253,.T.) ;
#305=FACE_OUTER_BOUND('',#300,.T.) ;
#317=FACE_OUTER_BOUND('',#312,.T.) ;
#341=FACE_OUTER_BOUND('',#338,.T.) ;
#371=FACE_OUTER_BOUND('',#366,.T.) ;
#383=FACE_OUTER_BOUND('',#378,.T.) ;
#407=FACE_OUTER_BOUND('',#404,.T.) ;
#456=FACE_OUTER_BOUND('',#447,.T.) ;
#477=FACE_OUTER_BOUND('',#468,.T.) ;
#488=FACE_OUTER_BOUND('',#484,.T.) ;
#499=FACE_OUTER_BOUND('',#495,.T.) ;
#44=UNCERTAINTY_MEASURE_WITH_UNIT(LENGTH_MEASURE(0.005),#41,'distance_accuracy_value','CONFUSED CURVE UNCERTAINTY') ;
#59=LINE('Line',#56,#58) ;
#68=LINE('Line',#65,#67) ;
#75=LINE('Line',#72,#74) ;
#82=LINE('Line',#79,#81) ;
#141=LINE('Line',#138,#140) ;
#148=LINE('Line',#145,#147) ;
#213=LINE('Line',#210,#212) ;
#220=LINE('Line',#217,#219) ;
#284=LINE('Line',#281,#283) ;
#291=LINE('Line',#288,#290) ;
#350=LINE('Line',#347,#349) ;
#357=LINE('Line',#354,#356) ;
#421=LINE('Line',#418,#420) ;
#428=LINE('Line',#425,#427) ;
#433=LINE('Line',#430,#432) ;
#2=MECHANICAL_CONTEXT(' ',#1,'mechanical') ;
#24=PERSONAL_ADDRESS(' ',' ',' ',' ',' ',' ',' ',' ',' ',' ',' ',' ',(#22),' ') ;
#55=PLANE('',#54) ;
#95=PLANE('',#94) ;
#180=PLANE('',#179) ;
#190=PLANE('',#189) ;
#252=PLANE('',#251) ;
#323=PLANE('',#322) ;
#389=PLANE('',#388) ;
#483=PLANE('',#482) ;
#494=PLANE('',#493) ;
#7=PRODUCT_CATEGORY('part',$) ;
#9=PRODUCT_CATEGORY_RELATIONSHIP(' ',' ',#7,#8) ;
#6=PRODUCT_DEFINITION_FORMATION_WITH_SPECIFIED_SOURCE('1',' ',#5,.MADE.) ;
#8=PRODUCT_RELATED_PRODUCT_CATEGORY('detail',$,(#5)) ;
#49=SHAPE_DEFINITION_REPRESENTATION(#40,#48) ;
#61=VERTEX_POINT('',#60) ;
#63=VERTEX_POINT('',#62) ;
#70=VERTEX_POINT('',#69) ;
#77=VERTEX_POINT('',#76) ;
#101=VERTEX_POINT('',#100) ;
#103=VERTEX_POINT('',#102) ;
#119=VERTEX_POINT('',#118) ;
#121=VERTEX_POINT('',#120) ;
#143=VERTEX_POINT('',#142) ;
#150=VERTEX_POINT('',#149) ;
#196=VERTEX_POINT('',#195) ;
#198=VERTEX_POINT('',#197) ;
#215=VERTEX_POINT('',#214) ;
#222=VERTEX_POINT('',#221) ;
#262=VERTEX_POINT('',#261) ;
#264=VERTEX_POINT('',#263) ;
#286=VERTEX_POINT('',#285) ;
#293=VERTEX_POINT('',#292) ;
#329=VERTEX_POINT('',#328) ;
#331=VERTEX_POINT('',#330) ;
#352=VERTEX_POINT('',#351) ;
#359=VERTEX_POINT('',#358) ;
#395=VERTEX_POINT('',#394) ;
#397=VERTEX_POINT('',#396) ;
#423=VERTEX_POINT('',#422) ;
#435=VERTEX_POINT('',#434) ;
#41=(LENGTH_UNIT()NAMED_UNIT(*)SI_UNIT(.MILLI.,.METRE.)) ;
#42=(NAMED_UNIT(*)PLANE_ANGLE_UNIT()SI_UNIT($,.RADIAN.)) ;
#43=(NAMED_UNIT(*)SI_UNIT($,.STERADIAN.)SOLID_ANGLE_UNIT()) ;
#45=(GEOMETRIC_REPRESENTATION_CONTEXT(3)GLOBAL_UNCERTAINTY_ASSIGNED_CONTEXT((#44))GLOBAL_UNIT_ASSIGNED_CONTEXT((#41,#42,#43))REPRESENTATION_CONTEXT(' ',' ')) ;
ENDSEC;
END-ISO-10303-21;
