ISO-10303-21;
HEADER;
FILE_DESCRIPTION (( 'STEP AP214' ),
    '1' );
FILE_NAME ('ROF3005.pneu roue folle .STEP',
    '2020-04-30T14:59:01',
    ( '' ),
    ( '' ),
    'SwSTEP 2.0',
    'SolidWorks 2016',
    '' );
FILE_SCHEMA (( 'AUTOMOTIVE_DESIGN' ));
ENDSEC;

DATA;
#1 = DIRECTION ( 'NONE',  ( 0.0000000000000000000, -1.000000000000000000, 0.0000000000000000000 ) ) ;
#2 = FACE_OUTER_BOUND ( 'NONE', #136, .T. ) ;
#3 = ORIENTED_EDGE ( 'NONE', *, *, #61, .T. ) ;
#4 = CLOSED_SHELL ( 'NONE', ( #211, #389, #154, #239, #214, #392, #181, #335, #89, #156, #65, #306, #126 ) ) ;
#5 = SHAPE_DEFINITION_REPRESENTATION ( #108, #149 ) ;
#6 = DIRECTION ( 'NONE',  ( 1.000000000000000000, 0.0000000000000000000, -0.0000000000000000000 ) ) ;
#7 = STYLED_ITEM ( 'NONE', ( #92 ), #58 ) ;
#8 = CYLINDRICAL_SURFACE ( 'NONE', #230, 21.25000000000000400 ) ;
#9 = CARTESIAN_POINT ( 'NONE',  ( 21.25000000000000400, 2.602374448188126200E-015, 39.00000000000000000 ) ) ;
#10 = CARTESIAN_POINT ( 'NONE',  ( -20.25000000000000400, 2.541142108230758300E-015, 40.00000000000000000 ) ) ;
#11 = AXIS2_PLACEMENT_3D ( 'NONE', #42, #375, #342 ) ;
#12 = CIRCLE ( 'NONE', #84, 20.10000000000000100 ) ;
#13 = SURFACE_STYLE_FILL_AREA ( #246 ) ;
#14 = AXIS2_PLACEMENT_3D ( 'NONE', #137, #319, #138 ) ;
#15 = VERTEX_POINT ( 'NONE', #133 ) ;
#16 = EDGE_CURVE ( 'NONE', #94, #198, #174, .T. ) ;
#17 = CARTESIAN_POINT ( 'NONE',  ( 0.0000000000000000000, 0.0000000000000000000, 0.0000000000000000000 ) ) ;
#18 = AXIS2_PLACEMENT_3D ( 'NONE', #199, #72, #317 ) ;
#19 = DIRECTION ( 'NONE',  ( 1.000000000000000000, 0.0000000000000000000, 0.0000000000000000000 ) ) ;
#20 = CIRCLE ( 'NONE', #77, 21.25000000000000400 ) ;
#21 = DIRECTION ( 'NONE',  ( 0.0000000000000000000, 0.0000000000000000000, 1.000000000000000000 ) ) ;
#22 =( NAMED_UNIT ( * ) PLANE_ANGLE_UNIT ( ) SI_UNIT ( $, .RADIAN. ) );
#23 = CARTESIAN_POINT ( 'NONE',  ( 0.0000000000000000000, 0.0000000000000000000, 39.00000000000000000 ) ) ;
#24 = TOROIDAL_SURFACE ( 'NONE', #160, 20.25000000000000400, 1.000000000000000000 ) ;
#25 = CARTESIAN_POINT ( 'NONE',  ( 20.25000000000000400, 0.0000000000000000000, 0.0000000000000000000 ) ) ;
#26 = ORIENTED_EDGE ( 'NONE', *, *, #61, .F. ) ;
#27 = ORIENTED_EDGE ( 'NONE', *, *, #104, .F. ) ;
#28 = DIRECTION ( 'NONE',  ( -0.0000000000000000000, -0.0000000000000000000, -1.000000000000000000 ) ) ;
#29 = EDGE_CURVE ( 'NONE', #293, #198, #33, .T. ) ;
#30 = AXIS2_PLACEMENT_3D ( 'NONE', #359, #54, #209 ) ;
#31 = FACE_OUTER_BOUND ( 'NONE', #79, .T. ) ;
#32 = DIRECTION ( 'NONE',  ( 1.000000000000000000, 0.0000000000000000000, 0.0000000000000000000 ) ) ;
#33 = LINE ( 'NONE', #97, #334 ) ;
#34 = PRODUCT_DEFINITION ( 'UNKNOWN', '', #124, #60 ) ;
#35 = CARTESIAN_POINT ( 'NONE',  ( 0.0000000000000000000, 0.0000000000000000000, 2.000000000000001800 ) ) ;
#36 = EDGE_CURVE ( 'NONE', #229, #198, #268, .T. ) ;
#37 = AXIS2_PLACEMENT_3D ( 'NONE', #257, #171, #254 ) ;
#38 = COLOUR_RGB ( '',0.6470588235294118000, 0.6196078431372549200, 0.5843137254901961100 ) ;
#39 = ORIENTED_EDGE ( 'NONE', *, *, #327, .F. ) ;
#40 = CARTESIAN_POINT ( 'NONE',  ( 21.25000000000000400, 2.602374448188126200E-015, 1.000000000000000900 ) ) ;
#41 = CARTESIAN_POINT ( 'NONE',  ( 0.0000000000000000000, 0.0000000000000000000, 2.000000000000001800 ) ) ;
#42 = CARTESIAN_POINT ( 'NONE',  ( 0.0000000000000000000, 0.0000000000000000000, 40.00000000000000000 ) ) ;
#43 = EDGE_CURVE ( 'NONE', #15, #386, #250, .T. ) ;
#44 = ORIENTED_EDGE ( 'NONE', *, *, #155, .F. ) ;
#45 = CARTESIAN_POINT ( 'NONE',  ( 5.099999999999999600, 6.245698675651500800E-016, 40.00000000000000000 ) ) ;
#46 = DIRECTION ( 'NONE',  ( 1.000000000000000000, 0.0000000000000000000, 0.0000000000000000000 ) ) ;
#47 =( GEOMETRIC_REPRESENTATION_CONTEXT ( 3 ) GLOBAL_UNCERTAINTY_ASSIGNED_CONTEXT ( ( #269 ) ) GLOBAL_UNIT_ASSIGNED_CONTEXT ( ( #365, #191, #251 ) ) REPRESENTATION_CONTEXT ( 'NONE', 'WORKASPACE' ) );
#48 = ORIENTED_EDGE ( 'NONE', *, *, #127, .T. ) ;
#49 = DIRECTION ( 'NONE',  ( -0.0000000000000000000, -0.0000000000000000000, 1.000000000000000000 ) ) ;
#50 = ORIENTED_EDGE ( 'NONE', *, *, #310, .F. ) ;
#51 = DIRECTION ( 'NONE',  ( 1.000000000000000000, 0.0000000000000000000, 0.0000000000000000000 ) ) ;
#52 = AXIS2_PLACEMENT_3D ( 'NONE', #311, #274, #192 ) ;
#53 = CARTESIAN_POINT ( 'NONE',  ( 0.0000000000000000000, 0.0000000000000000000, 40.00000000000000000 ) ) ;
#54 = DIRECTION ( 'NONE',  ( -0.0000000000000000000, -0.0000000000000000000, -1.000000000000000000 ) ) ;
#55 = ORIENTED_EDGE ( 'NONE', *, *, #367, .T. ) ;
#56 = DIRECTION ( 'NONE',  ( 1.000000000000000000, 0.0000000000000000000, -0.0000000000000000000 ) ) ;
#57 =( GEOMETRIC_REPRESENTATION_CONTEXT ( 3 ) GLOBAL_UNCERTAINTY_ASSIGNED_CONTEXT ( ( #345 ) ) GLOBAL_UNIT_ASSIGNED_CONTEXT ( ( #87, #125, #90 ) ) REPRESENTATION_CONTEXT ( 'NONE', 'WORKASPACE' ) );
#58 = MANIFOLD_SOLID_BREP ( 'Congé1', #4 ) ;
#59 = ORIENTED_EDGE ( 'NONE', *, *, #82, .F. ) ;
#60 = PRODUCT_DEFINITION_CONTEXT ( 'detailed design', #358, 'design' ) ;
#61 = EDGE_CURVE ( 'NONE', #394, #94, #63, .T. ) ;
#62 = MECHANICAL_DESIGN_GEOMETRIC_PRESENTATION_REPRESENTATION (  '', ( #252 ), #378 ) ;
#63 = CIRCLE ( 'NONE', #68, 1.000000000000000000 ) ;
#64 = ORIENTED_EDGE ( 'NONE', *, *, #166, .F. ) ;
#65 = ADVANCED_FACE ( 'NONE', ( #161 ), #121, .F. ) ;
#66 = DIRECTION ( 'NONE',  ( 0.0000000000000000000, 0.0000000000000000000, 1.000000000000000000 ) ) ;
#67 = CARTESIAN_POINT ( 'NONE',  ( 0.0000000000000000000, 0.0000000000000000000, 2.000000000000001800 ) ) ;
#68 = AXIS2_PLACEMENT_3D ( 'NONE', #371, #1, #249 ) ;
#69 = DIRECTION ( 'NONE',  ( 1.000000000000000000, 0.0000000000000000000, 0.0000000000000000000 ) ) ;
#70 = ORIENTED_EDGE ( 'NONE', *, *, #310, .T. ) ;
#71 = CARTESIAN_POINT ( 'NONE',  ( 0.0000000000000000000, 0.0000000000000000000, 0.0000000000000000000 ) ) ;
#72 = DIRECTION ( 'NONE',  ( 1.224646799147353200E-016, 1.000000000000000000, -0.0000000000000000000 ) ) ;
#73 = PRESENTATION_LAYER_ASSIGNMENT (  '', '', ( #7 ) ) ;
#74 = ORIENTED_EDGE ( 'NONE', *, *, #320, .T. ) ;
#75 = UNCERTAINTY_MEASURE_WITH_UNIT (LENGTH_MEASURE( 1.000000000000000100E-005 ), #178, 'distance_accuracy_value', 'NONE');
#76 = DIRECTION ( 'NONE',  ( -0.0000000000000000000, -0.0000000000000000000, -1.000000000000000000 ) ) ;
#77 = AXIS2_PLACEMENT_3D ( 'NONE', #235, #28, #186 ) ;
#78 = CYLINDRICAL_SURFACE ( 'NONE', #11, 5.099999999999999600 ) ;
#79 = EDGE_LOOP ( 'NONE', ( #370, #123, #349, #374 ) ) ;
#80 = EDGE_LOOP ( 'NONE', ( #158, #381 ) ) ;
#81 = DIRECTION ( 'NONE',  ( 0.0000000000000000000, 0.0000000000000000000, 1.000000000000000000 ) ) ;
#82 = EDGE_CURVE ( 'NONE', #135, #293, #318, .T. ) ;
#83 = CARTESIAN_POINT ( 'NONE',  ( -20.25000000000000400, 2.541142108230758300E-015, 0.0000000000000000000 ) ) ;
#84 = AXIS2_PLACEMENT_3D ( 'NONE', #208, #21, #323 ) ;
#85 = FACE_OUTER_BOUND ( 'NONE', #80, .T. ) ;
#86 = CARTESIAN_POINT ( 'NONE',  ( -20.10000000000000100, 2.461540066286179900E-015, 2.000000000000001800 ) ) ;
#87 =( LENGTH_UNIT ( ) NAMED_UNIT ( * ) SI_UNIT ( .MILLI., .METRE. ) );
#88 = EDGE_CURVE ( 'NONE', #264, #339, #263, .T. ) ;
#89 = ADVANCED_FACE ( 'NONE', ( #355 ), #255, .F. ) ;
#90 =( NAMED_UNIT ( * ) SI_UNIT ( $, .STERADIAN. ) SOLID_ANGLE_UNIT ( ) );
#91 = CIRCLE ( 'NONE', #218, 20.25000000000000400 ) ;
#92 = PRESENTATION_STYLE_ASSIGNMENT (( #159 ) ) ;
#93 = SURFACE_SIDE_STYLE ('',( #337 ) ) ;
#94 = VERTEX_POINT ( 'NONE', #40 ) ;
#95 = PRODUCT_RELATED_PRODUCT_CATEGORY ( 'part', '', ( #111 ) ) ;
#96 = LINE ( 'NONE', #390, #385 ) ;
#97 = CARTESIAN_POINT ( 'NONE',  ( -21.25000000000000400, 0.0000000000000000000, 40.00000000000000000 ) ) ;
#98 = LINE ( 'NONE', #262, #177 ) ;
#99 = ORIENTED_EDGE ( 'NONE', *, *, #36, .T. ) ;
#100 = EDGE_LOOP ( 'NONE', ( #50, #140, #204, #173 ) ) ;
#101 = DIRECTION ( 'NONE',  ( -1.000000000000000000, 0.0000000000000000000, 0.0000000000000000000 ) ) ;
#102 = AXIS2_PLACEMENT_3D ( 'NONE', #23, #302, #267 ) ;
#103 = CARTESIAN_POINT ( 'NONE',  ( 0.0000000000000000000, 0.0000000000000000000, 39.00000000000000000 ) ) ;
#104 = EDGE_CURVE ( 'NONE', #135, #94, #307, .T. ) ;
#105 = AXIS2_PLACEMENT_3D ( 'NONE', #321, #344, #261 ) ;
#106 = FACE_BOUND ( 'NONE', #313, .T. ) ;
#107 = ORIENTED_EDGE ( 'NONE', *, *, #227, .F. ) ;
#108 = PRODUCT_DEFINITION_SHAPE ( 'NONE', 'NONE',  #34 ) ;
#109 = CARTESIAN_POINT ( 'NONE',  ( 0.0000000000000000000, 0.0000000000000000000, 2.000000000000001800 ) ) ;
#110 = CIRCLE ( 'NONE', #219, 20.25000000000000400 ) ;
#111 = PRODUCT ( 'ROF3005.pneu roue folle ', 'ROF3005.pneu roue folle ', '', ( #238 ) ) ;
#112 = EDGE_LOOP ( 'NONE', ( #286, #151, #55, #260 ) ) ;
#113 = DIRECTION ( 'NONE',  ( -0.0000000000000000000, -0.0000000000000000000, -1.000000000000000000 ) ) ;
#114 = VERTEX_POINT ( 'NONE', #376 ) ;
#115 = DIRECTION ( 'NONE',  ( 0.0000000000000000000, 0.0000000000000000000, -1.000000000000000000 ) ) ;
#116 = CARTESIAN_POINT ( 'NONE',  ( 0.0000000000000000000, 0.0000000000000000000, 0.0000000000000000000 ) ) ;
#117 = FACE_BOUND ( 'NONE', #305, .T. ) ;
#118 = ORIENTED_EDGE ( 'NONE', *, *, #36, .F. ) ;
#119 = DIRECTION ( 'NONE',  ( 1.000000000000000000, 0.0000000000000000000, 0.0000000000000000000 ) ) ;
#120 = APPLICATION_PROTOCOL_DEFINITION ( 'draft international standard', 'automotive_design', 1998, #395 ) ;
#121 = CYLINDRICAL_SURFACE ( 'NONE', #332, 5.099999999999999600 ) ;
#122 = AXIS2_PLACEMENT_3D ( 'NONE', #35, #222, #69 ) ;
#123 = ORIENTED_EDGE ( 'NONE', *, *, #104, .T. ) ;
#124 = PRODUCT_DEFINITION_FORMATION_WITH_SPECIFIED_SOURCE ( 'ANY', '', #111, .NOT_KNOWN. ) ;
#125 =( NAMED_UNIT ( * ) PLANE_ANGLE_UNIT ( ) SI_UNIT ( $, .RADIAN. ) );
#126 = ADVANCED_FACE ( 'NONE', ( #362 ), #24, .T. ) ;
#127 = EDGE_CURVE ( 'NONE', #293, #190, #329, .T. ) ;
#128 = VERTEX_POINT ( 'NONE', #282 ) ;
#129 = EDGE_LOOP ( 'NONE', ( #380, #275, #324, #74 ) ) ;
#130 = FACE_OUTER_BOUND ( 'NONE', #303, .T. ) ;
#131 = ORIENTED_EDGE ( 'NONE', *, *, #43, .T. ) ;
#132 = EDGE_CURVE ( 'NONE', #217, #264, #285, .T. ) ;
#133 = CARTESIAN_POINT ( 'NONE',  ( 20.10000000000000100, 0.0000000000000000000, 2.000000000000001800 ) ) ;
#134 = CARTESIAN_POINT ( 'NONE',  ( 0.0000000000000000000, 0.0000000000000000000, 1.000000000000000900 ) ) ;
#135 = VERTEX_POINT ( 'NONE', #9 ) ;
#136 = EDGE_LOOP ( 'NONE', ( #308, #59, #341, #64 ) ) ;
#137 = CARTESIAN_POINT ( 'NONE',  ( 0.0000000000000000000, 0.0000000000000000000, 40.00000000000000000 ) ) ;
#138 = DIRECTION ( 'NONE',  ( 1.000000000000000000, 0.0000000000000000000, -0.0000000000000000000 ) ) ;
#139 = FACE_BOUND ( 'NONE', #221, .T. ) ;
#140 = ORIENTED_EDGE ( 'NONE', *, *, #213, .T. ) ;
#141 = AXIS2_PLACEMENT_3D ( 'NONE', #71, #279, #216 ) ;
#142 = DIRECTION ( 'NONE',  ( 1.000000000000000000, 0.0000000000000000000, 0.0000000000000000000 ) ) ;
#143 = CARTESIAN_POINT ( 'NONE',  ( -5.099999999999999600, 0.0000000000000000000, 0.0000000000000000000 ) ) ;
#144 = VERTEX_POINT ( 'NONE', #256 ) ;
#145 = EDGE_CURVE ( 'NONE', #217, #128, #258, .T. ) ;
#146 = CARTESIAN_POINT ( 'NONE',  ( -20.10000000000000100, 2.461540066286179900E-015, 40.00000000000000000 ) ) ;
#147 = DIRECTION ( 'NONE',  ( 0.0000000000000000000, 0.0000000000000000000, 1.000000000000000000 ) ) ;
#148 = CARTESIAN_POINT ( 'NONE',  ( 0.0000000000000000000, 0.0000000000000000000, 39.00000000000000000 ) ) ;
#149 = ADVANCED_BREP_SHAPE_REPRESENTATION ( 'ROF3005.pneu roue folle ', ( #58, #201 ), #57 ) ;
#150 = CIRCLE ( 'NONE', #336, 1.000000000000000900 ) ;
#151 = ORIENTED_EDGE ( 'NONE', *, *, #43, .F. ) ;
#152 = DIRECTION ( 'NONE',  ( -0.0000000000000000000, -0.0000000000000000000, 1.000000000000000000 ) ) ;
#153 = ORIENTED_EDGE ( 'NONE', *, *, #206, .F. ) ;
#154 = ADVANCED_FACE ( 'NONE', ( #215 ), #78, .F. ) ;
#155 = EDGE_CURVE ( 'NONE', #229, #394, #110, .T. ) ;
#156 = ADVANCED_FACE ( 'NONE', ( #117, #228 ), #168, .T. ) ;
#157 = LINE ( 'NONE', #86, #340 ) ;
#158 = ORIENTED_EDGE ( 'NONE', *, *, #247, .T. ) ;
#159 = SURFACE_STYLE_USAGE ( .BOTH. , #309 ) ;
#160 = AXIS2_PLACEMENT_3D ( 'NONE', #322, #316, #224 ) ;
#161 = FACE_OUTER_BOUND ( 'NONE', #129, .T. ) ;
#162 = ORIENTED_EDGE ( 'NONE', *, *, #145, .F. ) ;
#163 = AXIS2_PLACEMENT_3D ( 'NONE', #379, #147, #119 ) ;
#164 = ORIENTED_EDGE ( 'NONE', *, *, #187, .F. ) ;
#165 = DIRECTION ( 'NONE',  ( 1.000000000000000000, 0.0000000000000000000, 0.0000000000000000000 ) ) ;
#166 = EDGE_CURVE ( 'NONE', #190, #114, #248, .T. ) ;
#167 = TOROIDAL_SURFACE ( 'NONE', #278, 20.25000000000000400, 1.000000000000000000 ) ;
#168 = PLANE ( 'NONE',  #185 ) ;
#169 = DIRECTION ( 'NONE',  ( 0.0000000000000000000, 0.0000000000000000000, 1.000000000000000000 ) ) ;
#170 = CARTESIAN_POINT ( 'NONE',  ( 21.25000000000000400, 2.602374448188126200E-015, 40.00000000000000000 ) ) ;
#171 = DIRECTION ( 'NONE',  ( 0.0000000000000000000, 0.0000000000000000000, 1.000000000000000000 ) ) ;
#172 = FACE_OUTER_BOUND ( 'NONE', #396, .T. ) ;
#173 = ORIENTED_EDGE ( 'NONE', *, *, #367, .F. ) ;
#174 = CIRCLE ( 'NONE', #383, 21.25000000000000400 ) ;
#175 = DIRECTION ( 'NONE',  ( 1.000000000000000000, 0.0000000000000000000, 0.0000000000000000000 ) ) ;
#176 = CARTESIAN_POINT ( 'NONE',  ( 5.099999999999999600, 6.245698675651500800E-016, 2.000000000000001800 ) ) ;
#177 = VECTOR ( 'NONE', #351, 1000.000000000000000 ) ;
#178 =( LENGTH_UNIT ( ) NAMED_UNIT ( * ) SI_UNIT ( .MILLI., .METRE. ) );
#179 = PRESENTATION_LAYER_ASSIGNMENT (  '', '', ( #252 ) ) ;
#180 = VECTOR ( 'NONE', #113, 1000.000000000000000 ) ;
#181 = ADVANCED_FACE ( 'NONE', ( #130, #139 ), #281, .T. ) ;
#182 = EDGE_LOOP ( 'NONE', ( #352, #361, #195, #292 ) ) ;
#183 = APPLICATION_PROTOCOL_DEFINITION ( 'draft international standard', 'automotive_design', 1998, #358 ) ;
#184 = ORIENTED_EDGE ( 'NONE', *, *, #88, .F. ) ;
#185 = AXIS2_PLACEMENT_3D ( 'NONE', #196, #223, #6 ) ;
#186 = DIRECTION ( 'NONE',  ( 1.000000000000000000, 0.0000000000000000000, 0.0000000000000000000 ) ) ;
#187 = EDGE_CURVE ( 'NONE', #198, #94, #197, .T. ) ;
#188 = CIRCLE ( 'NONE', #304, 5.099999999999999600 ) ;
#189 = CIRCLE ( 'NONE', #388, 20.10000000000000100 ) ;
#190 = VERTEX_POINT ( 'NONE', #10 ) ;
#191 =( NAMED_UNIT ( * ) PLANE_ANGLE_UNIT ( ) SI_UNIT ( $, .RADIAN. ) );
#192 = DIRECTION ( 'NONE',  ( -1.000000000000000000, 1.224646799147353500E-016, 0.0000000000000000000 ) ) ;
#193 = DIRECTION ( 'NONE',  ( -0.0000000000000000000, -0.0000000000000000000, -1.000000000000000000 ) ) ;
#194 = CIRCLE ( 'NONE', #163, 20.10000000000000100 ) ;
#195 = ORIENTED_EDGE ( 'NONE', *, *, #88, .T. ) ;
#196 = CARTESIAN_POINT ( 'NONE',  ( 0.0000000000000000000, 0.0000000000000000000, 2.000000000000001800 ) ) ;
#197 = CIRCLE ( 'NONE', #237, 21.25000000000000400 ) ;
#198 = VERTEX_POINT ( 'NONE', #347 ) ;
#199 = CARTESIAN_POINT ( 'NONE',  ( -20.25000000000000400, 2.479909768273391100E-015, 39.00000000000000000 ) ) ;
#200 = CARTESIAN_POINT ( 'NONE',  ( 0.0000000000000000000, 0.0000000000000000000, 40.00000000000000000 ) ) ;
#201 = AXIS2_PLACEMENT_3D ( 'NONE', #236, #270, #271 ) ;
#202 = DIRECTION ( 'NONE',  ( 0.0000000000000000000, 0.0000000000000000000, 1.000000000000000000 ) ) ;
#203 = COLOUR_RGB ( '',0.6470588235294118000, 0.6196078431372549200, 0.5843137254901961100 ) ;
#204 = ORIENTED_EDGE ( 'NONE', *, *, #227, .T. ) ;
#205 = ORIENTED_EDGE ( 'NONE', *, *, #82, .T. ) ;
#206 = EDGE_CURVE ( 'NONE', #128, #217, #312, .T. ) ;
#207 = DIRECTION ( 'NONE',  ( -0.0000000000000000000, -0.0000000000000000000, -1.000000000000000000 ) ) ;
#208 = CARTESIAN_POINT ( 'NONE',  ( 0.0000000000000000000, 0.0000000000000000000, 2.000000000000001800 ) ) ;
#209 = DIRECTION ( 'NONE',  ( -1.000000000000000000, 0.0000000000000000000, 0.0000000000000000000 ) ) ;
#210 = ORIENTED_EDGE ( 'NONE', *, *, #327, .T. ) ;
#211 = ADVANCED_FACE ( 'NONE', ( #172 ), #244, .T. ) ;
#212 = ORIENTED_EDGE ( 'NONE', *, *, #273, .F. ) ;
#213 = EDGE_CURVE ( 'NONE', #386, #220, #157, .T. ) ;
#214 = ADVANCED_FACE ( 'NONE', ( #31 ), #8, .T. ) ;
#215 = FACE_OUTER_BOUND ( 'NONE', #182, .T. ) ;
#216 = DIRECTION ( 'NONE',  ( -1.000000000000000000, 0.0000000000000000000, 0.0000000000000000000 ) ) ;
#217 = VERTEX_POINT ( 'NONE', #176 ) ;
#218 = AXIS2_PLACEMENT_3D ( 'NONE', #377, #207, #19 ) ;
#219 = AXIS2_PLACEMENT_3D ( 'NONE', #288, #283, #142 ) ;
#220 = VERTEX_POINT ( 'NONE', #146 ) ;
#221 = EDGE_LOOP ( 'NONE', ( #280, #107 ) ) ;
#222 = DIRECTION ( 'NONE',  ( -0.0000000000000000000, -0.0000000000000000000, 1.000000000000000000 ) ) ;
#223 = DIRECTION ( 'NONE',  ( 0.0000000000000000000, 0.0000000000000000000, 1.000000000000000000 ) ) ;
#224 = DIRECTION ( 'NONE',  ( 1.000000000000000000, 0.0000000000000000000, 0.0000000000000000000 ) ) ;
#225 = ORIENTED_EDGE ( 'NONE', *, *, #320, .F. ) ;
#226 = DIRECTION ( 'NONE',  ( 1.000000000000000000, 0.0000000000000000000, 0.0000000000000000000 ) ) ;
#227 = EDGE_CURVE ( 'NONE', #220, #144, #189, .T. ) ;
#228 = FACE_OUTER_BOUND ( 'NONE', #360, .T. ) ;
#229 = VERTEX_POINT ( 'NONE', #83 ) ;
#230 = AXIS2_PLACEMENT_3D ( 'NONE', #200, #76, #231 ) ;
#231 = DIRECTION ( 'NONE',  ( -1.000000000000000000, 0.0000000000000000000, 0.0000000000000000000 ) ) ;
#232 = CARTESIAN_POINT ( 'NONE',  ( 20.25000000000000400, 0.0000000000000000000, 39.00000000000000000 ) ) ;
#233 = TOROIDAL_SURFACE ( 'NONE', #102, 20.25000000000000400, 1.000000000000000000 ) ;
#234 = EDGE_LOOP ( 'NONE', ( #118, #356, #3, #164 ) ) ;
#235 = CARTESIAN_POINT ( 'NONE',  ( 0.0000000000000000000, 0.0000000000000000000, 39.00000000000000000 ) ) ;
#236 = CARTESIAN_POINT ( 'NONE',  ( 0.0000000000000000000, 0.0000000000000000000, 0.0000000000000000000 ) ) ;
#237 = AXIS2_PLACEMENT_3D ( 'NONE', #346, #169, #287 ) ;
#238 = PRODUCT_CONTEXT ( 'NONE', #395, 'mechanical' ) ;
#239 = ADVANCED_FACE ( 'NONE', ( #393 ), #373, .F. ) ;
#240 = ORIENTED_EDGE ( 'NONE', *, *, #16, .F. ) ;
#241 = AXIS2_PLACEMENT_3D ( 'NONE', #53, #354, #357 ) ;
#242 = EDGE_CURVE ( 'NONE', #128, #339, #98, .T. ) ;
#243 = PRESENTATION_STYLE_ASSIGNMENT (( #333 ) ) ;
#244 = TOROIDAL_SURFACE ( 'NONE', #105, 20.25000000000000400, 1.000000000000000000 ) ;
#245 = DIRECTION ( 'NONE',  ( -0.0000000000000000000, -0.0000000000000000000, -1.000000000000000000 ) ) ;
#246 = FILL_AREA_STYLE ('',( #368 ) ) ;
#247 = EDGE_CURVE ( 'NONE', #394, #229, #91, .T. ) ;
#248 = CIRCLE ( 'NONE', #37, 20.25000000000000400 ) ;
#249 = DIRECTION ( 'NONE',  ( 0.0000000000000000000, 0.0000000000000000000, -1.000000000000000000 ) ) ;
#250 = CIRCLE ( 'NONE', #343, 20.10000000000000100 ) ;
#251 =( NAMED_UNIT ( * ) SI_UNIT ( $, .STERADIAN. ) SOLID_ANGLE_UNIT ( ) );
#252 = STYLED_ITEM ( 'NONE', ( #243 ), #149 ) ;
#253 = DIRECTION ( 'NONE',  ( -0.0000000000000000000, -0.0000000000000000000, -1.000000000000000000 ) ) ;
#254 = DIRECTION ( 'NONE',  ( 1.000000000000000000, 0.0000000000000000000, 0.0000000000000000000 ) ) ;
#255 = CYLINDRICAL_SURFACE ( 'NONE', #122, 20.10000000000000100 ) ;
#256 = CARTESIAN_POINT ( 'NONE',  ( 20.10000000000000100, 0.0000000000000000000, 40.00000000000000000 ) ) ;
#257 = CARTESIAN_POINT ( 'NONE',  ( 0.0000000000000000000, 0.0000000000000000000, 40.00000000000000000 ) ) ;
#258 = CIRCLE ( 'NONE', #301, 5.099999999999999600 ) ;
#259 = ORIENTED_EDGE ( 'NONE', *, *, #29, .T. ) ;
#260 = ORIENTED_EDGE ( 'NONE', *, *, #296, .T. ) ;
#261 = DIRECTION ( 'NONE',  ( 1.000000000000000000, 0.0000000000000000000, 0.0000000000000000000 ) ) ;
#262 = CARTESIAN_POINT ( 'NONE',  ( -5.099999999999999600, 0.0000000000000000000, 40.00000000000000000 ) ) ;
#263 = CIRCLE ( 'NONE', #141, 5.099999999999999600 ) ;
#264 = VERTEX_POINT ( 'NONE', #326 ) ;
#265 = DIRECTION ( 'NONE',  ( 0.0000000000000000000, 0.0000000000000000000, -1.000000000000000000 ) ) ;
#266 = CARTESIAN_POINT ( 'NONE',  ( -20.10000000000000100, 2.461540066286179900E-015, 2.000000000000001800 ) ) ;
#267 = DIRECTION ( 'NONE',  ( 1.000000000000000000, 0.0000000000000000000, 0.0000000000000000000 ) ) ;
#268 = CIRCLE ( 'NONE', #52, 1.000000000000000900 ) ;
#269 = UNCERTAINTY_MEASURE_WITH_UNIT (LENGTH_MEASURE( 1.000000000000000100E-005 ), #365, 'distance_accuracy_value', 'NONE');
#270 = DIRECTION ( 'NONE',  ( 0.0000000000000000000, 0.0000000000000000000, 1.000000000000000000 ) ) ;
#271 = DIRECTION ( 'NONE',  ( 1.000000000000000000, 0.0000000000000000000, 0.0000000000000000000 ) ) ;
#272 = EDGE_LOOP ( 'NONE', ( #27, #205, #259, #338 ) ) ;
#273 = EDGE_CURVE ( 'NONE', #135, #114, #150, .T. ) ;
#274 = DIRECTION ( 'NONE',  ( 1.224646799147353200E-016, 1.000000000000000000, -0.0000000000000000000 ) ) ;
#275 = ORIENTED_EDGE ( 'NONE', *, *, #145, .T. ) ;
#276 = CARTESIAN_POINT ( 'NONE',  ( 0.0000000000000000000, 0.0000000000000000000, 40.00000000000000000 ) ) ;
#277 = DIRECTION ( 'NONE',  ( 1.000000000000000000, 0.0000000000000000000, 0.0000000000000000000 ) ) ;
#278 = AXIS2_PLACEMENT_3D ( 'NONE', #148, #202, #175 ) ;
#279 = DIRECTION ( 'NONE',  ( 0.0000000000000000000, 0.0000000000000000000, -1.000000000000000000 ) ) ;
#280 = ORIENTED_EDGE ( 'NONE', *, *, #296, .F. ) ;
#281 = PLANE ( 'NONE',  #14 ) ;
#282 = CARTESIAN_POINT ( 'NONE',  ( -5.099999999999999600, 0.0000000000000000000, 2.000000000000001800 ) ) ;
#283 = DIRECTION ( 'NONE',  ( -0.0000000000000000000, -0.0000000000000000000, -1.000000000000000000 ) ) ;
#284 = FACE_OUTER_BOUND ( 'NONE', #272, .T. ) ;
#285 = LINE ( 'NONE', #45, #180 ) ;
#286 = ORIENTED_EDGE ( 'NONE', *, *, #213, .F. ) ;
#287 = DIRECTION ( 'NONE',  ( 1.000000000000000000, 0.0000000000000000000, 0.0000000000000000000 ) ) ;
#288 = CARTESIAN_POINT ( 'NONE',  ( 0.0000000000000000000, 0.0000000000000000000, 0.0000000000000000000 ) ) ;
#289 = DIRECTION ( 'NONE',  ( -0.0000000000000000000, -0.0000000000000000000, 1.000000000000000000 ) ) ;
#290 = DIRECTION ( 'NONE',  ( 0.0000000000000000000, -1.000000000000000000, 0.0000000000000000000 ) ) ;
#291 = AXIS2_PLACEMENT_3D ( 'NONE', #382, #49, #51 ) ;
#292 = ORIENTED_EDGE ( 'NONE', *, *, #242, .F. ) ;
#293 = VERTEX_POINT ( 'NONE', #294 ) ;
#294 = CARTESIAN_POINT ( 'NONE',  ( -21.25000000000000400, 0.0000000000000000000, 39.00000000000000000 ) ) ;
#295 = CARTESIAN_POINT ( 'NONE',  ( 0.0000000000000000000, 0.0000000000000000000, 40.00000000000000000 ) ) ;
#296 = EDGE_CURVE ( 'NONE', #144, #220, #194, .T. ) ;
#297 = VECTOR ( 'NONE', #193, 1000.000000000000000 ) ;
#298 = FILL_AREA_STYLE ('',( #300 ) ) ;
#299 = EDGE_LOOP ( 'NONE', ( #364, #48, #39, #212 ) ) ;
#300 = FILL_AREA_STYLE_COLOUR ( '', #203 ) ;
#301 = AXIS2_PLACEMENT_3D ( 'NONE', #109, #372, #226 ) ;
#302 = DIRECTION ( 'NONE',  ( 0.0000000000000000000, 0.0000000000000000000, 1.000000000000000000 ) ) ;
#303 = EDGE_LOOP ( 'NONE', ( #210, #369 ) ) ;
#304 = AXIS2_PLACEMENT_3D ( 'NONE', #116, #265, #330 ) ;
#305 = EDGE_LOOP ( 'NONE', ( #153, #162 ) ) ;
#306 = ADVANCED_FACE ( 'NONE', ( #2 ), #167, .T. ) ;
#307 = LINE ( 'NONE', #170, #297 ) ;
#308 = ORIENTED_EDGE ( 'NONE', *, *, #127, .F. ) ;
#309 = SURFACE_SIDE_STYLE ('',( #13 ) ) ;
#310 = EDGE_CURVE ( 'NONE', #386, #15, #12, .T. ) ;
#311 = CARTESIAN_POINT ( 'NONE',  ( -20.25000000000000400, 2.479909768273391100E-015, 1.000000000000000900 ) ) ;
#312 = CIRCLE ( 'NONE', #363, 5.099999999999999600 ) ;
#313 = EDGE_LOOP ( 'NONE', ( #225, #184 ) ) ;
#314 = DIRECTION ( 'NONE',  ( -0.0000000000000000000, -0.0000000000000000000, -1.000000000000000000 ) ) ;
#315 = MECHANICAL_DESIGN_GEOMETRIC_PRESENTATION_REPRESENTATION (  '', ( #7 ), #47 ) ;
#316 = DIRECTION ( 'NONE',  ( 0.0000000000000000000, 0.0000000000000000000, 1.000000000000000000 ) ) ;
#317 = DIRECTION ( 'NONE',  ( -1.000000000000000000, 1.224646799147353500E-016, 0.0000000000000000000 ) ) ;
#318 = CIRCLE ( 'NONE', #397, 21.25000000000000400 ) ;
#319 = DIRECTION ( 'NONE',  ( 0.0000000000000000000, 0.0000000000000000000, 1.000000000000000000 ) ) ;
#320 = EDGE_CURVE ( 'NONE', #339, #264, #188, .T. ) ;
#321 = CARTESIAN_POINT ( 'NONE',  ( 0.0000000000000000000, 0.0000000000000000000, 1.000000000000000900 ) ) ;
#322 = CARTESIAN_POINT ( 'NONE',  ( 0.0000000000000000000, 0.0000000000000000000, 1.000000000000000900 ) ) ;
#323 = DIRECTION ( 'NONE',  ( 1.000000000000000000, 0.0000000000000000000, 0.0000000000000000000 ) ) ;
#324 = ORIENTED_EDGE ( 'NONE', *, *, #242, .T. ) ;
#325 = DIRECTION ( 'NONE',  ( 0.0000000000000000000, 0.0000000000000000000, 1.000000000000000000 ) ) ;
#326 = CARTESIAN_POINT ( 'NONE',  ( 5.099999999999999600, 6.245698675651500800E-016, 0.0000000000000000000 ) ) ;
#327 = EDGE_CURVE ( 'NONE', #114, #190, #348, .T. ) ;
#328 = CYLINDRICAL_SURFACE ( 'NONE', #30, 21.25000000000000400 ) ;
#329 = CIRCLE ( 'NONE', #18, 1.000000000000000900 ) ;
#330 = DIRECTION ( 'NONE',  ( -1.000000000000000000, 0.0000000000000000000, 0.0000000000000000000 ) ) ;
#331 = DIRECTION ( 'NONE',  ( 0.0000000000000000000, 0.0000000000000000000, 1.000000000000000000 ) ) ;
#332 = AXIS2_PLACEMENT_3D ( 'NONE', #276, #253, #101 ) ;
#333 = SURFACE_STYLE_USAGE ( .BOTH. , #93 ) ;
#334 = VECTOR ( 'NONE', #245, 1000.000000000000000 ) ;
#335 = ADVANCED_FACE ( 'NONE', ( #85, #106 ), #384, .F. ) ;
#336 = AXIS2_PLACEMENT_3D ( 'NONE', #232, #290, #115 ) ;
#337 = SURFACE_STYLE_FILL_AREA ( #298 ) ;
#338 = ORIENTED_EDGE ( 'NONE', *, *, #187, .T. ) ;
#339 = VERTEX_POINT ( 'NONE', #143 ) ;
#340 = VECTOR ( 'NONE', #289, 1000.000000000000000 ) ;
#341 = ORIENTED_EDGE ( 'NONE', *, *, #273, .T. ) ;
#342 = DIRECTION ( 'NONE',  ( -1.000000000000000000, 0.0000000000000000000, 0.0000000000000000000 ) ) ;
#343 = AXIS2_PLACEMENT_3D ( 'NONE', #67, #366, #32 ) ;
#344 = DIRECTION ( 'NONE',  ( 0.0000000000000000000, 0.0000000000000000000, 1.000000000000000000 ) ) ;
#345 = UNCERTAINTY_MEASURE_WITH_UNIT (LENGTH_MEASURE( 1.000000000000000100E-005 ), #87, 'distance_accuracy_value', 'NONE');
#346 = CARTESIAN_POINT ( 'NONE',  ( 0.0000000000000000000, 0.0000000000000000000, 1.000000000000000900 ) ) ;
#347 = CARTESIAN_POINT ( 'NONE',  ( -21.25000000000000400, 0.0000000000000000000, 1.000000000000000900 ) ) ;
#348 = CIRCLE ( 'NONE', #241, 20.25000000000000400 ) ;
#349 = ORIENTED_EDGE ( 'NONE', *, *, #16, .T. ) ;
#350 = EDGE_CURVE ( 'NONE', #293, #135, #20, .T. ) ;
#351 = DIRECTION ( 'NONE',  ( -0.0000000000000000000, -0.0000000000000000000, -1.000000000000000000 ) ) ;
#352 = ORIENTED_EDGE ( 'NONE', *, *, #206, .T. ) ;
#353 = DIRECTION ( 'NONE',  ( 1.000000000000000000, 0.0000000000000000000, 0.0000000000000000000 ) ) ;
#354 = DIRECTION ( 'NONE',  ( 0.0000000000000000000, 0.0000000000000000000, 1.000000000000000000 ) ) ;
#355 = FACE_OUTER_BOUND ( 'NONE', #112, .T. ) ;
#356 = ORIENTED_EDGE ( 'NONE', *, *, #247, .F. ) ;
#357 = DIRECTION ( 'NONE',  ( 1.000000000000000000, 0.0000000000000000000, 0.0000000000000000000 ) ) ;
#358 = APPLICATION_CONTEXT ( 'automotive_design' ) ;
#359 = CARTESIAN_POINT ( 'NONE',  ( 0.0000000000000000000, 0.0000000000000000000, 40.00000000000000000 ) ) ;
#360 = EDGE_LOOP ( 'NONE', ( #131, #70 ) ) ;
#361 = ORIENTED_EDGE ( 'NONE', *, *, #132, .T. ) ;
#362 = FACE_OUTER_BOUND ( 'NONE', #234, .T. ) ;
#363 = AXIS2_PLACEMENT_3D ( 'NONE', #41, #81, #46 ) ;
#364 = ORIENTED_EDGE ( 'NONE', *, *, #350, .F. ) ;
#365 =( LENGTH_UNIT ( ) NAMED_UNIT ( * ) SI_UNIT ( .MILLI., .METRE. ) );
#366 = DIRECTION ( 'NONE',  ( 0.0000000000000000000, 0.0000000000000000000, 1.000000000000000000 ) ) ;
#367 = EDGE_CURVE ( 'NONE', #15, #144, #96, .T. ) ;
#368 = FILL_AREA_STYLE_COLOUR ( '', #38 ) ;
#369 = ORIENTED_EDGE ( 'NONE', *, *, #166, .T. ) ;
#370 = ORIENTED_EDGE ( 'NONE', *, *, #350, .T. ) ;
#371 = CARTESIAN_POINT ( 'NONE',  ( 20.25000000000000400, 0.0000000000000000000, 1.000000000000000900 ) ) ;
#372 = DIRECTION ( 'NONE',  ( 0.0000000000000000000, 0.0000000000000000000, 1.000000000000000000 ) ) ;
#373 = CYLINDRICAL_SURFACE ( 'NONE', #291, 20.10000000000000100 ) ;
#374 = ORIENTED_EDGE ( 'NONE', *, *, #29, .F. ) ;
#375 = DIRECTION ( 'NONE',  ( -0.0000000000000000000, -0.0000000000000000000, -1.000000000000000000 ) ) ;
#376 = CARTESIAN_POINT ( 'NONE',  ( 20.25000000000000400, 0.0000000000000000000, 40.00000000000000000 ) ) ;
#377 = CARTESIAN_POINT ( 'NONE',  ( 0.0000000000000000000, 0.0000000000000000000, 0.0000000000000000000 ) ) ;
#378 =( GEOMETRIC_REPRESENTATION_CONTEXT ( 3 ) GLOBAL_UNCERTAINTY_ASSIGNED_CONTEXT ( ( #75 ) ) GLOBAL_UNIT_ASSIGNED_CONTEXT ( ( #178, #22, #387 ) ) REPRESENTATION_CONTEXT ( 'NONE', 'WORKASPACE' ) );
#379 = CARTESIAN_POINT ( 'NONE',  ( 0.0000000000000000000, 0.0000000000000000000, 40.00000000000000000 ) ) ;
#380 = ORIENTED_EDGE ( 'NONE', *, *, #132, .F. ) ;
#381 = ORIENTED_EDGE ( 'NONE', *, *, #155, .T. ) ;
#382 = CARTESIAN_POINT ( 'NONE',  ( 0.0000000000000000000, 0.0000000000000000000, 2.000000000000001800 ) ) ;
#383 = AXIS2_PLACEMENT_3D ( 'NONE', #134, #66, #277 ) ;
#384 = PLANE ( 'NONE',  #391 ) ;
#385 = VECTOR ( 'NONE', #152, 1000.000000000000000 ) ;
#386 = VERTEX_POINT ( 'NONE', #266 ) ;
#387 =( NAMED_UNIT ( * ) SI_UNIT ( $, .STERADIAN. ) SOLID_ANGLE_UNIT ( ) );
#388 = AXIS2_PLACEMENT_3D ( 'NONE', #295, #325, #353 ) ;
#389 = ADVANCED_FACE ( 'NONE', ( #398 ), #233, .T. ) ;
#390 = CARTESIAN_POINT ( 'NONE',  ( 20.10000000000000100, 0.0000000000000000000, 2.000000000000001800 ) ) ;
#391 = AXIS2_PLACEMENT_3D ( 'NONE', #17, #331, #56 ) ;
#392 = ADVANCED_FACE ( 'NONE', ( #284 ), #328, .T. ) ;
#393 = FACE_OUTER_BOUND ( 'NONE', #100, .T. ) ;
#394 = VERTEX_POINT ( 'NONE', #25 ) ;
#395 = APPLICATION_CONTEXT ( 'automotive_design' ) ;
#396 = EDGE_LOOP ( 'NONE', ( #44, #99, #240, #26 ) ) ;
#397 = AXIS2_PLACEMENT_3D ( 'NONE', #103, #314, #165 ) ;
#398 = FACE_OUTER_BOUND ( 'NONE', #299, .T. ) ;
ENDSEC;
END-ISO-10303-21;
