ISO-10303-21;
HEADER;
FILE_DESCRIPTION (( 'STEP AP203' ),
    '1' );
FILE_NAME ('Moulure Lucarne.STEP',
    '2020-05-25T05:59:23',
    ( '' ),
    ( '' ),
    'SwSTEP 2.0',
    'SolidWorks 2013',
    '' );
FILE_SCHEMA (( 'CONFIG_CONTROL_DESIGN' ));
ENDSEC;

DATA;
#1 = CIRCLE ( 'NONE', #79, 582.5923913669937500 ) ;
#2 = CARTESIAN_POINT ( 'NONE',  ( 0.0000000000000000000, 11.99999999999994100, 0.0000000000000000000 ) ) ;
#3 = AXIS2_PLACEMENT_3D ( 'NONE', #21, #207, #46 ) ;
#4 = PERSON_AND_ORGANIZATION_ROLE ( 'design_owner' ) ;
#5 = ADVANCED_FACE ( 'NONE', ( #117 ), #282, .T. ) ;
#6 = DATE_TIME_ROLE ( 'classification_date' ) ;
#7 = PERSON ( 'UNSPECIFIED', 'UNSPECIFIED', 'UNSPECIFIED', ('UNSPECIFIED'), ('UNSPECIFIED'), ('UNSPECIFIED') ) ;
#8 = CC_DESIGN_APPROVAL ( #29, ( #44 ) ) ;
#9 = COORDINATED_UNIVERSAL_TIME_OFFSET ( 1, 0, .AHEAD. ) ;
#10 = EDGE_LOOP ( 'NONE', ( #200, #339, #196, #343 ) ) ;
#11 = DATE_AND_TIME ( #219, #85 ) ;
#12 = EDGE_CURVE ( 'NONE', #174, #322, #327, .T. ) ;
#13 = LINE ( 'NONE', #80, #94 ) ;
#14 = AXIS2_PLACEMENT_3D ( 'NONE', #137, #139, #331 ) ;
#15 = VERTEX_POINT ( 'NONE', #153 ) ;
#16 = LOCAL_TIME ( 7, 59, 23.00000000000000000, #91 ) ;
#17 = ORIENTED_EDGE ( 'NONE', *, *, #344, .T. ) ;
#18 = AXIS2_PLACEMENT_3D ( 'NONE', #295, #133, #326 ) ;
#19 = DIRECTION ( 'NONE',  ( -0.0000000000000000000, -0.0000000000000000000, -1.000000000000000000 ) ) ;
#20 = PERSON_AND_ORGANIZATION ( #7, #26 ) ;
#21 = CARTESIAN_POINT ( 'NONE',  ( 0.0000000000000000000, 51.99999999999999300, 0.0000000000000000000 ) ) ;
#22 = CARTESIAN_POINT ( 'NONE',  ( -594.9999999999998900, 69.99999999999998600, 0.0000000000000000000 ) ) ;
#23 = LINE ( 'NONE', #186, #157 ) ;
#24 = CARTESIAN_POINT ( 'NONE',  ( -582.5923913669937500, 84.99999999999995700, 0.0000000000000000000 ) ) ;
#25 = DIRECTION ( 'NONE',  ( 0.0000000000000000000, 1.000000000000000000, 0.0000000000000000000 ) ) ;
#26 = ORGANIZATION ( 'UNSPECIFIED', 'UNSPECIFIED', '' ) ;
#27 = EDGE_LOOP ( 'NONE', ( #164, #152, #125, #246, #234, #122, #231 ) ) ;
#28 = DIRECTION ( 'NONE',  ( 0.0000000000000000000, -1.000000000000000000, -0.0000000000000000000 ) ) ;
#29 = APPROVAL ( #224, 'UNSPECIFIED' ) ;
#30 = PERSON_AND_ORGANIZATION ( #7, #26 ) ;
#31 = DIRECTION ( 'NONE',  ( -1.000000000000000000, 0.0000000000000000000, -3.491481338843133400E-015 ) ) ;
#32 = VECTOR ( 'NONE', #181, 1000.000000000000000 ) ;
#33 = EDGE_CURVE ( 'NONE', #67, #340, #184, .T. ) ;
#34 = CARTESIAN_POINT ( 'NONE',  ( 1.745740669421566600E-012, 61.99999999999994300, -500.0000000000000000 ) ) ;
#35 = DIRECTION ( 'NONE',  ( 0.0000000000000000000, 0.0000000000000000000, 1.000000000000000000 ) ) ;
#36 = APPLICATION_PROTOCOL_DEFINITION ( 'international standard', 'config_control_design', 1994, #195 ) ;
#37 = CC_DESIGN_PERSON_AND_ORGANIZATION_ASSIGNMENT ( #30, #304, ( #202 ) ) ;
#38 = APPROVAL_ROLE ( '' ) ;
#39 = AXIS2_PLACEMENT_3D ( 'NONE', #190, #31, #218 ) ;
#40 = CIRCLE ( 'NONE', #3, 557.9897948556636000 ) ;
#41 = AXIS2_PLACEMENT_3D ( 'NONE', #101, #158, #124 ) ;
#42 = ORIENTED_EDGE ( 'NONE', *, *, #121, .T. ) ;
#43 = ORIENTED_EDGE ( 'NONE', *, *, #47, .T. ) ;
#44 = PRODUCT_DEFINITION ( 'UNKNOWN', '', #202, #102 ) ;
#45 = CIRCLE ( 'NONE', #336, 594.9999999999998900 ) ;
#46 = DIRECTION ( 'NONE',  ( 0.0000000000000000000, 0.0000000000000000000, 1.000000000000000000 ) ) ;
#47 = EDGE_CURVE ( 'NONE', #205, #90, #45, .T. ) ;
#48 = DIRECTION ( 'NONE',  ( 0.0000000000000000000, 0.0000000000000000000, 1.000000000000000000 ) ) ;
#49 = CARTESIAN_POINT ( 'NONE',  ( -557.9897948556634900, 51.99999999999997900, -326.8628541606675500 ) ) ;
#50 = CC_DESIGN_APPROVAL ( #148, ( #202 ) ) ;
#51 = CARTESIAN_POINT ( 'NONE',  ( -500.0000000000000000, -5.517032269125332000E-014, 0.0000000000000000000 ) ) ;
#52 = CARTESIAN_POINT ( 'NONE',  ( 2.077431396611663800E-012, 69.99999999999998600, -594.9999999999998900 ) ) ;
#53 = AXIS2_PLACEMENT_3D ( 'NONE', #324, #28, #215 ) ;
#54 = ORIENTED_EDGE ( 'NONE', *, *, #247, .T. ) ;
#55 = CARTESIAN_POINT ( 'NONE',  ( -500.0000000000000000, -5.517032269125332000E-014, 0.0000000000000000000 ) ) ;
#56 = EDGE_LOOP ( 'NONE', ( #254, #132, #95, #180 ) ) ;
#57 = EDGE_LOOP ( 'NONE', ( #142, #106, #144, #269 ) ) ;
#58 = CARTESIAN_POINT ( 'NONE',  ( 1.948210956003457500E-012, 51.99999999999999300, -557.9897948556636000 ) ) ;
#59 = DIRECTION ( 'NONE',  ( 0.0000000000000000000, 1.000000000000000000, 0.0000000000000000000 ) ) ;
#60 = DIRECTION ( 'NONE',  ( 3.491481338843130200E-015, 0.0000000000000000000, -1.000000000000000000 ) ) ;
#61 =( NAMED_UNIT ( * ) PLANE_ANGLE_UNIT ( ) SI_UNIT ( $, .RADIAN. ) );
#62 = VECTOR ( 'NONE', #167, 1000.000000000000000 ) ;
#63 = EDGE_CURVE ( 'NONE', #278, #258, #40, .T. ) ;
#64 = APPROVAL_ROLE ( '' ) ;
#65 = ADVANCED_FACE ( 'NONE', ( #318 ), #283, .T. ) ;
#66 = CC_DESIGN_PERSON_AND_ORGANIZATION_ASSIGNMENT ( #83, #252, ( #44 ) ) ;
#67 = VERTEX_POINT ( 'NONE', #183 ) ;
#68 = ORIENTED_EDGE ( 'NONE', *, *, #204, .T. ) ;
#69 = EDGE_CURVE ( 'NONE', #340, #15, #256, .T. ) ;
#70 = VECTOR ( 'NONE', #352, 1000.000000000000000 ) ;
#71 = PERSON_AND_ORGANIZATION ( #7, #26 ) ;
#72 = DIRECTION ( 'NONE',  ( 1.000000000000000000, -0.0000000000000000000, 3.491481338843133400E-015 ) ) ;
#73 = ORIENTED_EDGE ( 'NONE', *, *, #315, .T. ) ;
#74 = LOCAL_TIME ( 7, 59, 23.00000000000000000, #146 ) ;
#75 = DIRECTION ( 'NONE',  ( 0.0000000000000000000, -0.0000000000000000000, 1.000000000000000000 ) ) ;
#76 = CARTESIAN_POINT ( 'NONE',  ( 2.034110462609853800E-012, 84.99999999999995700, -582.5923913669937500 ) ) ;
#77 = VECTOR ( 'NONE', #25, 1000.000000000000000 ) ;
#78 = CARTESIAN_POINT ( 'NONE',  ( 1.957876773452160800E-012, 86.19550820480199600, -560.7581950018048900 ) ) ;
#79 = AXIS2_PLACEMENT_3D ( 'NONE', #294, #131, #325 ) ;
#80 = CARTESIAN_POINT ( 'NONE',  ( 2.077431396611664200E-012, -6.680446728315316600E-014, -595.0000000000000000 ) ) ;
#81 = EDGE_LOOP ( 'NONE', ( #235, #281, #17, #260 ) ) ;
#82 = CARTESIAN_POINT ( 'NONE',  ( 1.916787623953869200E-012, 52.00000000000000700, -548.9897948556636000 ) ) ;
#83 = PERSON_AND_ORGANIZATION ( #7, #26 ) ;
#84 = CLOSED_SHELL ( 'NONE', ( #115, #198, #225, #89, #173, #65, #305, #5, #335 ) ) ;
#85 = LOCAL_TIME ( 7, 59, 23.00000000000000000, #229 ) ;
#86 = EDGE_CURVE ( 'NONE', #322, #258, #177, .T. ) ;
#87 = DIRECTION ( 'NONE',  ( -1.000000000000000000, 0.0000000000000000000, 0.0000000000000000000 ) ) ;
#88 = DATE_TIME_ROLE ( 'creation_date' ) ;
#89 = ADVANCED_FACE ( 'NONE', ( #169 ), #100, .T. ) ;
#90 = VERTEX_POINT ( 'NONE', #22 ) ;
#91 = COORDINATED_UNIVERSAL_TIME_OFFSET ( 1, 0, .AHEAD. ) ;
#92 = VERTEX_POINT ( 'NONE', #76 ) ;
#93 = PERSON_AND_ORGANIZATION ( #7, #26 ) ;
#94 = VECTOR ( 'NONE', #129, 1000.000000000000000 ) ;
#95 = ORIENTED_EDGE ( 'NONE', *, *, #309, .T. ) ;
#96 = ORIENTED_EDGE ( 'NONE', *, *, #285, .T. ) ;
#97 = CARTESIAN_POINT ( 'NONE',  ( 1.745740669421566600E-012, 61.99999999999994300, -500.0000000000000000 ) ) ;
#98 = ORIENTED_EDGE ( 'NONE', *, *, #145, .T. ) ;
#99 = DIRECTION ( 'NONE',  ( -1.000000000000000000, -1.541976423090493700E-015, 0.0000000000000000000 ) ) ;
#100 = TOROIDAL_SURFACE ( 'NONE', #300, 579.7291785549316500, 15.27082144506823300 ) ;
#101 = CARTESIAN_POINT ( 'NONE',  ( 0.0000000000000000000, 0.0000000000000000000, 0.0000000000000000000 ) ) ;
#102 = DESIGN_CONTEXT ( 'detailed design', #195, 'design' ) ;
#103 = CARTESIAN_POINT ( 'NONE',  ( -560.7581950018048900, 86.19550820480199600, -328.4845454202015800 ) ) ;
#104 = SECURITY_CLASSIFICATION ( '', '', #334 ) ;
#105 =( BOUNDED_SURFACE ( )  B_SPLINE_SURFACE ( 2, 3, ( 
 ( #213, #126, #49, #244 ),
 ( #78, #264, #103, #290 ),
 ( #128, #321, #160, #349 ) ),
 .UNSPECIFIED., .F., .F., .F. ) 
 B_SPLINE_SURFACE_WITH_KNOTS ( ( 3, 3 ),
 ( 4, 4 ),
 ( 0.0000000000000000000, 1.000000000000000000 ),
 ( 0.0000000000000000000, 1.000000000000000000 ),
 .UNSPECIFIED. ) 
 GEOMETRIC_REPRESENTATION_ITEM ( )  RATIONAL_B_SPLINE_SURFACE ( (
 ( 1.000000000000000000, 0.8047378541243640500, 0.8047378541243640500, 1.000000000000000000),
 ( 1.000000000000000000, 0.8047378541243640500, 0.8047378541243640500, 1.000000000000000000),
 ( 1.000000000000000000, 0.8047378541243640500, 0.8047378541243640500, 1.000000000000000000) ) ) 
 REPRESENTATION_ITEM ( '' )  SURFACE ( )  );
#106 = ORIENTED_EDGE ( 'NONE', *, *, #232, .T. ) ;
#107 = DIRECTION ( 'NONE',  ( 0.0000000000000000000, 0.0000000000000000000, 1.000000000000000000 ) ) ;
#108 = CARTESIAN_POINT ( 'NONE',  ( -500.0000000000000000, -5.517032269125332000E-014, 0.0000000000000000000 ) ) ;
#109 = EDGE_CURVE ( 'NONE', #278, #92, #341, .T. ) ;
#110 = CARTESIAN_POINT ( 'NONE',  ( 0.0000000000000000000, 61.99999999999994300, 0.0000000000000000000 ) ) ;
#111 = VECTOR ( 'NONE', #237, 1000.000000000000000 ) ;
#112 = CARTESIAN_POINT ( 'NONE',  ( -500.0000000000000000, 61.99999999999994300, 0.0000000000000000000 ) ) ;
#113 = CARTESIAN_POINT ( 'NONE',  ( 1.916787623953869200E-012, 52.00000000000000700, -548.9897948556636000 ) ) ;
#114 = APPROVAL_ROLE ( '' ) ;
#115 = ADVANCED_FACE ( 'NONE', ( #310 ), #230, .F. ) ;
#116 = AXIS2_PLACEMENT_3D ( 'NONE', #320, #159, #348 ) ;
#117 = FACE_OUTER_BOUND ( 'NONE', #27, .T. ) ;
#118 = FACE_OUTER_BOUND ( 'NONE', #163, .T. ) ;
#119 = CC_DESIGN_PERSON_AND_ORGANIZATION_ASSIGNMENT ( #166, #140, ( #202 ) ) ;
#120 = ORIENTED_EDGE ( 'NONE', *, *, #86, .T. ) ;
#121 = EDGE_CURVE ( 'NONE', #258, #312, #337, .T. ) ;
#122 = ORIENTED_EDGE ( 'NONE', *, *, #210, .F. ) ;
#123 = CARTESIAN_POINT ( 'NONE',  ( 0.0000000000000000000, 69.99999999999998600, 0.0000000000000000000 ) ) ;
#124 = DIRECTION ( 'NONE',  ( 0.0000000000000000000, 0.0000000000000000000, 1.000000000000000000 ) ) ;
#125 = ORIENTED_EDGE ( 'NONE', *, *, #188, .F. ) ;
#126 = CARTESIAN_POINT ( 'NONE',  ( -326.8628541606656200, 51.99999999999997900, -557.9897948556646300 ) ) ;
#127 = FACE_OUTER_BOUND ( 'NONE', #57, .T. ) ;
#128 = CARTESIAN_POINT ( 'NONE',  ( 2.034110462609853800E-012, 84.99999999999998600, -582.5923913669937500 ) ) ;
#129 = DIRECTION ( 'NONE',  ( 5.537604246332444300E-030, -1.000000000000000000, -1.586032892321650700E-015 ) ) ;
#130 = AXIS2_PLACEMENT_3D ( 'NONE', #182, #19, #206 ) ;
#131 = DIRECTION ( 'NONE',  ( 0.0000000000000000000, 1.000000000000000000, 0.0000000000000000000 ) ) ;
#132 = ORIENTED_EDGE ( 'NONE', *, *, #188, .T. ) ;
#133 = DIRECTION ( 'NONE',  ( 0.0000000000000000000, 1.000000000000000000, 0.0000000000000000000 ) ) ;
#134 = DIRECTION ( 'NONE',  ( 0.0000000000000000000, 0.0000000000000000000, 1.000000000000000000 ) ) ;
#135 = APPROVAL_DATE_TIME ( #208, #148 ) ;
#136 = DIRECTION ( 'NONE',  ( 0.0000000000000000000, 0.0000000000000000000, 1.000000000000000000 ) ) ;
#137 = CARTESIAN_POINT ( 'NONE',  ( 0.0000000000000000000, 0.0000000000000000000, 0.0000000000000000000 ) ) ;
#138 = LINE ( 'NONE', #82, #70 ) ;
#139 = DIRECTION ( 'NONE',  ( 0.0000000000000000000, 0.0000000000000000000, 1.000000000000000000 ) ) ;
#140 = PERSON_AND_ORGANIZATION_ROLE ( 'design_supplier' ) ;
#141 = CC_DESIGN_DATE_AND_TIME_ASSIGNMENT ( #236, #6, ( #104 ) ) ;
#142 = ORIENTED_EDGE ( 'NONE', *, *, #328, .T. ) ;
#143 = DATE_AND_TIME ( #216, #280 ) ;
#144 = ORIENTED_EDGE ( 'NONE', *, *, #12, .F. ) ;
#145 = EDGE_CURVE ( 'NONE', #340, #293, #239, .T. ) ;
#146 = COORDINATED_UNIVERSAL_TIME_OFFSET ( 1, 0, .AHEAD. ) ;
#147 = FACE_OUTER_BOUND ( 'NONE', #313, .T. ) ;
#148 = APPROVAL ( #273, 'UNSPECIFIED' ) ;
#149 = EDGE_CURVE ( 'NONE', #90, #175, #23, .T. ) ;
#150 = APPROVAL_DATE_TIME ( #227, #29 ) ;
#151 = DIRECTION ( 'NONE',  ( 3.491481338843133400E-015, 0.0000000000000000000, -1.000000000000000000 ) ) ;
#152 = ORIENTED_EDGE ( 'NONE', *, *, #33, .F. ) ;
#153 = CARTESIAN_POINT ( 'NONE',  ( 1.745740669421566600E-012, 11.99999999999994100, -500.0000000000000000 ) ) ;
#154 = UNCERTAINTY_MEASURE_WITH_UNIT (LENGTH_MEASURE( 1.000000000000000100E-005 ), #301, 'distance_accuracy_value', 'NONE');
#155 = APPROVAL_PERSON_ORGANIZATION ( #20, #179, #38 ) ;
#156 = DIRECTION ( 'NONE',  ( 0.0000000000000000000, 0.0000000000000000000, 1.000000000000000000 ) ) ;
#157 = VECTOR ( 'NONE', #346, 1000.000000000000000 ) ;
#158 = DIRECTION ( 'NONE',  ( 0.0000000000000000000, 1.000000000000000000, 0.0000000000000000000 ) ) ;
#159 = DIRECTION ( 'NONE',  ( 0.0000000000000000000, 1.000000000000000000, 0.0000000000000000000 ) ) ;
#160 = CARTESIAN_POINT ( 'NONE',  ( -582.5923913669936400, 84.99999999999998600, -341.2747215274117700 ) ) ;
#161 = CC_DESIGN_PERSON_AND_ORGANIZATION_ASSIGNMENT ( #93, #172, ( #104 ) ) ;
#162 = APPROVAL_PERSON_ORGANIZATION ( #233, #29, #64 ) ;
#163 = EDGE_LOOP ( 'NONE', ( #253, #267, #120, #42, #73, #265, #96 ) ) ;
#164 = ORIENTED_EDGE ( 'NONE', *, *, #69, .F. ) ;
#165 = DIRECTION ( 'NONE',  ( 0.0000000000000000000, 1.000000000000000000, 0.0000000000000000000 ) ) ;
#166 = PERSON_AND_ORGANIZATION ( #7, #26 ) ;
#167 = DIRECTION ( 'NONE',  ( 1.000000000000000000, 1.224646799147352000E-016, -0.0000000000000000000 ) ) ;
#168 = CARTESIAN_POINT ( 'NONE',  ( -548.9897948556636000, 52.00000000000000700, 0.0000000000000000000 ) ) ;
#169 = FACE_OUTER_BOUND ( 'NONE', #323, .T. ) ;
#170 = PLANE ( 'NONE',  #289 ) ;
#171 = MECHANICAL_CONTEXT ( 'NONE', #302, 'mechanical' ) ;
#172 = PERSON_AND_ORGANIZATION_ROLE ( 'classification_officer' ) ;
#173 = ADVANCED_FACE ( 'NONE', ( #299 ), #105, .T. ) ;
#174 = VERTEX_POINT ( 'NONE', #288 ) ;
#175 = VERTEX_POINT ( 'NONE', #245 ) ;
#176 = EDGE_CURVE ( 'NONE', #293, #174, #287, .T. ) ;
#177 = LINE ( 'NONE', #286, #248 ) ;
#178 = ORIENTED_EDGE ( 'NONE', *, *, #33, .T. ) ;
#179 = APPROVAL ( #197, 'UNSPECIFIED' ) ;
#180 = ORIENTED_EDGE ( 'NONE', *, *, #149, .F. ) ;
#181 = DIRECTION ( 'NONE',  ( 0.0000000000000000000, 1.000000000000000000, 0.0000000000000000000 ) ) ;
#182 = CARTESIAN_POINT ( 'NONE',  ( -500.0000000000000000, 61.99999999999994300, 0.0000000000000000000 ) ) ;
#183 = CARTESIAN_POINT ( 'NONE',  ( 2.077431396611664200E-012, -6.680446728315316600E-014, -595.0000000000000000 ) ) ;
#184 = LINE ( 'NONE', #316, #111 ) ;
#185 = CARTESIAN_POINT ( 'NONE',  ( 1.948210956003457500E-012, 51.99999999999999300, -557.9897948556636000 ) ) ;
#186 = CARTESIAN_POINT ( 'NONE',  ( -595.0000000000000000, -6.680446728315316600E-014, 0.0000000000000000000 ) ) ;
#187 = AXIS2_PLACEMENT_3D ( 'NONE', #97, #72, #151 ) ;
#188 = EDGE_CURVE ( 'NONE', #205, #67, #13, .T. ) ;
#189 = CARTESIAN_POINT ( 'NONE',  ( 0.0000000000000000000, 0.0000000000000000000, 0.0000000000000000000 ) ) ;
#190 = CARTESIAN_POINT ( 'NONE',  ( 2.024113608507402800E-012, 69.99999999999997200, -579.7291785549316500 ) ) ;
#191 = ORIENTED_EDGE ( 'NONE', *, *, #63, .F. ) ;
#192 = CARTESIAN_POINT ( 'NONE',  ( -582.5923913669937500, 84.99999999999995700, 0.0000000000000000000 ) ) ;
#193 = DIRECTION ( 'NONE',  ( 0.0000000000000000000, 1.000000000000000000, 0.0000000000000000000 ) ) ;
#194 = CIRCLE ( 'NONE', #274, 50.00000000000004300 ) ;
#195 = APPLICATION_CONTEXT ( 'configuration controlled 3d designs of mechanical parts and assemblies' ) ;
#196 = ORIENTED_EDGE ( 'NONE', *, *, #63, .T. ) ;
#197 = APPROVAL_STATUS ( 'not_yet_approved' ) ;
#198 = ADVANCED_FACE ( 'NONE', ( #147 ), #350, .T. ) ;
#199 = CC_DESIGN_APPROVAL ( #179, ( #104 ) ) ;
#200 = ORIENTED_EDGE ( 'NONE', *, *, #232, .F. ) ;
#201 = MANIFOLD_SOLID_BREP ( 'Révolution1', #84 ) ;
#202 = PRODUCT_DEFINITION_FORMATION_WITH_SPECIFIED_SOURCE ( 'ANY', '', #241, .NOT_KNOWN. ) ;
#203 = CYLINDRICAL_SURFACE ( 'NONE', #351, 595.0000000000000000 ) ;
#204 = EDGE_CURVE ( 'NONE', #92, #312, #1, .T. ) ;
#205 = VERTEX_POINT ( 'NONE', #52 ) ;
#206 = DIRECTION ( 'NONE',  ( -1.000000000000000000, 0.0000000000000000000, 0.0000000000000000000 ) ) ;
#207 = DIRECTION ( 'NONE',  ( 0.0000000000000000000, 1.000000000000000000, 0.0000000000000000000 ) ) ;
#208 = DATE_AND_TIME ( #355, #74 ) ;
#209 = DIRECTION ( 'NONE',  ( 0.0000000000000000000, 1.000000000000000000, 0.0000000000000000000 ) ) ;
#210 = EDGE_CURVE ( 'NONE', #354, #278, #138, .T. ) ;
#211 = CARTESIAN_POINT ( 'NONE',  ( -560.7581950018048900, 86.19550820480199600, 0.0000000000000000000 ) ) ;
#212 = CIRCLE ( 'NONE', #18, 548.9897948556636000 ) ;
#213 = CARTESIAN_POINT ( 'NONE',  ( 1.948210956003457500E-012, 51.99999999999999300, -557.9897948556636000 ) ) ;
#214 = CC_DESIGN_SECURITY_CLASSIFICATION ( #104, ( #202 ) ) ;
#215 = DIRECTION ( 'NONE',  ( 0.0000000000000000000, 0.0000000000000000000, -1.000000000000000000 ) ) ;
#216 = CALENDAR_DATE ( 2020, 25, 5 ) ;
#217 = ORIENTED_EDGE ( 'NONE', *, *, #204, .F. ) ;
#218 = DIRECTION ( 'NONE',  ( 3.491481338843150300E-015, 0.0000000000000000000, -1.000000000000000000 ) ) ;
#219 = CALENDAR_DATE ( 2020, 25, 5 ) ;
#220 = CARTESIAN_POINT ( 'NONE',  ( 0.0000000000000000000, -6.680446728315316600E-014, 0.0000000000000000000 ) ) ;
#221 = DIRECTION ( 'NONE',  ( 1.000000000000000000, -0.0000000000000000000, 3.491481338843133400E-015 ) ) ;
#222 = LINE ( 'NONE', #55, #62 ) ;
#223 = CC_DESIGN_DATE_AND_TIME_ASSIGNMENT ( #143, #88, ( #44 ) ) ;
#224 = APPROVAL_STATUS ( 'not_yet_approved' ) ;
#225 = ADVANCED_FACE ( 'NONE', ( #277 ), #203, .T. ) ;
#226 = ORIENTED_EDGE ( 'NONE', *, *, #285, .F. ) ;
#227 = DATE_AND_TIME ( #291, #16 ) ;
#228 = ORIENTED_EDGE ( 'NONE', *, *, #315, .F. ) ;
#229 = COORDINATED_UNIVERSAL_TIME_OFFSET ( 1, 0, .AHEAD. ) ;
#230 = CYLINDRICAL_SURFACE ( 'NONE', #41, 500.0000000000000000 ) ;
#231 = ORIENTED_EDGE ( 'NONE', *, *, #328, .F. ) ;
#232 = EDGE_CURVE ( 'NONE', #354, #322, #212, .T. ) ;
#233 = PERSON_AND_ORGANIZATION ( #7, #26 ) ;
#234 = ORIENTED_EDGE ( 'NONE', *, *, #109, .F. ) ;
#235 = ORIENTED_EDGE ( 'NONE', *, *, #145, .F. ) ;
#236 = DATE_AND_TIME ( #296, #330 ) ;
#237 = DIRECTION ( 'NONE',  ( -3.491481338843133400E-015, 1.224646799147352000E-016, 1.000000000000000000 ) ) ;
#238 = DIRECTION ( 'NONE',  ( 0.0000000000000000000, 1.000000000000000000, 0.0000000000000000000 ) ) ;
#239 = CIRCLE ( 'NONE', #116, 500.0000000000000000 ) ;
#240 = CARTESIAN_POINT ( 'NONE',  ( 1.957876773452160800E-012, 86.19550820480199600, -560.7581950018048900 ) ) ;
#241 = PRODUCT ( 'Moulure Lucarne', 'Moulure Lucarne', '', ( #171 ) ) ;
#242 = AXIS2_PLACEMENT_3D ( 'NONE', #259, #238, #75 ) ;
#243 = CARTESIAN_POINT ( 'NONE',  ( -557.9897948556636000, 51.99999999999999300, 0.0000000000000000000 ) ) ;
#244 = CARTESIAN_POINT ( 'NONE',  ( -557.9897948556636000, 51.99999999999999300, 0.0000000000000000000 ) ) ;
#245 = CARTESIAN_POINT ( 'NONE',  ( -595.0000000000000000, -6.680446728315316600E-014, 0.0000000000000000000 ) ) ;
#246 = ORIENTED_EDGE ( 'NONE', *, *, #247, .F. ) ;
#247 = EDGE_CURVE ( 'NONE', #92, #205, #347, .T. ) ;
#248 = VECTOR ( 'NONE', #99, 1000.000000000000000 ) ;
#249 = DIRECTION ( 'NONE',  ( 0.0000000000000000000, 0.0000000000000000000, 1.000000000000000000 ) ) ;
#250 = DIRECTION ( 'NONE',  ( -0.0000000000000000000, 0.0000000000000000000, -1.000000000000000000 ) ) ;
#251 =( NAMED_UNIT ( * ) SI_UNIT ( $, .STERADIAN. ) SOLID_ANGLE_UNIT ( ) );
#252 = PERSON_AND_ORGANIZATION_ROLE ( 'creator' ) ;
#253 = ORIENTED_EDGE ( 'NONE', *, *, #176, .T. ) ;
#254 = ORIENTED_EDGE ( 'NONE', *, *, #47, .F. ) ;
#255 = ADVANCED_BREP_SHAPE_REPRESENTATION ( 'Moulure Lucarne', ( #201, #14 ), #332 ) ;
#256 = LINE ( 'NONE', #261, #32 ) ;
#257 = CIRCLE ( 'NONE', #272, 500.0000000000000000 ) ;
#258 = VERTEX_POINT ( 'NONE', #266 ) ;
#259 = CARTESIAN_POINT ( 'NONE',  ( 1.916787623953869200E-012, 52.00000000000000000, -548.9897948556636000 ) ) ;
#260 = ORIENTED_EDGE ( 'NONE', *, *, #176, .F. ) ;
#261 = CARTESIAN_POINT ( 'NONE',  ( 1.745740669421566600E-012, -5.517032269125332000E-014, -500.0000000000000000 ) ) ;
#262 = ORIENTED_EDGE ( 'NONE', *, *, #109, .T. ) ;
#263 = CIRCLE ( 'NONE', #292, 15.27082144506819400 ) ;
#264 = CARTESIAN_POINT ( 'NONE',  ( -328.4845454201996500, 86.19550820480199600, -560.7581950018060300 ) ) ;
#265 = ORIENTED_EDGE ( 'NONE', *, *, #149, .T. ) ;
#266 = CARTESIAN_POINT ( 'NONE',  ( -557.9897948556636000, 51.99999999999999300, 0.0000000000000000000 ) ) ;
#267 = ORIENTED_EDGE ( 'NONE', *, *, #12, .T. ) ;
#268 = CARTESIAN_POINT ( 'NONE',  ( 1.745740669421566600E-012, -5.517032269125332000E-014, -500.0000000000000000 ) ) ;
#269 = ORIENTED_EDGE ( 'NONE', *, *, #344, .F. ) ;
#270 = CIRCLE ( 'NONE', #338, 595.0000000000000000 ) ;
#271 = APPLICATION_PROTOCOL_DEFINITION ( 'international standard', 'config_control_design', 1994, #302 ) ;
#272 = AXIS2_PLACEMENT_3D ( 'NONE', #2, #193, #35 ) ;
#273 = APPROVAL_STATUS ( 'not_yet_approved' ) ;
#274 = AXIS2_PLACEMENT_3D ( 'NONE', #34, #221, #60 ) ;
#275 = EDGE_LOOP ( 'NONE', ( #191, #262, #68, #307 ) ) ;
#276 = COORDINATED_UNIVERSAL_TIME_OFFSET ( 1, 0, .AHEAD. ) ;
#277 = FACE_OUTER_BOUND ( 'NONE', #56, .T. ) ;
#278 = VERTEX_POINT ( 'NONE', #58 ) ;
#279 = PRODUCT_RELATED_PRODUCT_CATEGORY ( 'detail', '', ( #241 ) ) ;
#280 = LOCAL_TIME ( 7, 59, 23.00000000000000000, #9 ) ;
#281 = ORIENTED_EDGE ( 'NONE', *, *, #69, .T. ) ;
#282 = PLANE ( 'NONE',  #187 ) ;
#283 = PLANE ( 'NONE',  #242 ) ;
#284 = APPROVAL_DATE_TIME ( #11, #179 ) ;
#285 = EDGE_CURVE ( 'NONE', #175, #293, #222, .T. ) ;
#286 = CARTESIAN_POINT ( 'NONE',  ( -548.9897948556636000, 52.00000000000000700, 0.0000000000000000000 ) ) ;
#287 = LINE ( 'NONE', #51, #77 ) ;
#288 = CARTESIAN_POINT ( 'NONE',  ( -500.0000000000000000, 11.99999999999994100, 0.0000000000000000000 ) ) ;
#289 = AXIS2_PLACEMENT_3D ( 'NONE', #112, #250, #87 ) ;
#290 = CARTESIAN_POINT ( 'NONE',  ( -560.7581950018048900, 86.19550820480199600, 0.0000000000000000000 ) ) ;
#291 = CALENDAR_DATE ( 2020, 25, 5 ) ;
#292 = AXIS2_PLACEMENT_3D ( 'NONE', #298, #136, #329 ) ;
#293 = VERTEX_POINT ( 'NONE', #108 ) ;
#294 = CARTESIAN_POINT ( 'NONE',  ( 0.0000000000000000000, 84.99999999999995700, 0.0000000000000000000 ) ) ;
#295 = CARTESIAN_POINT ( 'NONE',  ( 0.0000000000000000000, 52.00000000000000700, 0.0000000000000000000 ) ) ;
#296 = CALENDAR_DATE ( 2020, 25, 5 ) ;
#297 = DIRECTION ( 'NONE',  ( 0.0000000000000000000, 1.000000000000000000, 0.0000000000000000000 ) ) ;
#298 = CARTESIAN_POINT ( 'NONE',  ( -579.7291785549316500, 69.99999999999997200, 0.0000000000000000000 ) ) ;
#299 = FACE_OUTER_BOUND ( 'NONE', #275, .T. ) ;
#300 = AXIS2_PLACEMENT_3D ( 'NONE', #345, #209, #48 ) ;
#301 =( LENGTH_UNIT ( ) NAMED_UNIT ( * ) SI_UNIT ( .MILLI., .METRE. ) );
#302 = APPLICATION_CONTEXT ( 'configuration controlled 3d designs of mechanical parts and assemblies' ) ;
#303 = PRODUCT_DEFINITION_SHAPE ( 'NONE', 'NONE',  #44 ) ;
#304 = PERSON_AND_ORGANIZATION_ROLE ( 'creator' ) ;
#305 = ADVANCED_FACE ( 'NONE', ( #127 ), #342, .F. ) ;
#306 = PERSON_AND_ORGANIZATION ( #7, #26 ) ;
#307 = ORIENTED_EDGE ( 'NONE', *, *, #121, .F. ) ;
#308 = ORIENTED_EDGE ( 'NONE', *, *, #309, .F. ) ;
#309 = EDGE_CURVE ( 'NONE', #67, #175, #270, .T. ) ;
#310 = FACE_OUTER_BOUND ( 'NONE', #81, .T. ) ;
#311 = CC_DESIGN_PERSON_AND_ORGANIZATION_ASSIGNMENT ( #306, #4, ( #241 ) ) ;
#312 = VERTEX_POINT ( 'NONE', #192 ) ;
#313 = EDGE_LOOP ( 'NONE', ( #308, #178, #98, #226 ) ) ;
#314 = AXIS2_PLACEMENT_3D ( 'NONE', #110, #297, #134 ) ;
#315 = EDGE_CURVE ( 'NONE', #312, #90, #263, .T. ) ;
#316 = CARTESIAN_POINT ( 'NONE',  ( 1.745740669421566600E-012, -5.517032269125332000E-014, -500.0000000000000000 ) ) ;
#317 = DIRECTION ( 'NONE',  ( 0.0000000000000000000, 1.000000000000000000, 0.0000000000000000000 ) ) ;
#318 = FACE_OUTER_BOUND ( 'NONE', #10, .T. ) ;
#319 = CARTESIAN_POINT ( 'NONE',  ( 2.034110462609853800E-012, 84.99999999999995700, -582.5923913669937500 ) ) ;
#320 = CARTESIAN_POINT ( 'NONE',  ( 0.0000000000000000000, -5.517032269125332000E-014, 0.0000000000000000000 ) ) ;
#321 = CARTESIAN_POINT ( 'NONE',  ( -341.2747215274097200, 84.99999999999998600, -582.5923913669950000 ) ) ;
#322 = VERTEX_POINT ( 'NONE', #168 ) ;
#323 = EDGE_LOOP ( 'NONE', ( #217, #54, #43, #228 ) ) ;
#324 = CARTESIAN_POINT ( 'NONE',  ( 1.745740669421566600E-012, -6.098739498720324600E-014, -500.0000000000000000 ) ) ;
#325 = DIRECTION ( 'NONE',  ( 0.0000000000000000000, 0.0000000000000000000, 1.000000000000000000 ) ) ;
#326 = DIRECTION ( 'NONE',  ( 0.0000000000000000000, 0.0000000000000000000, 1.000000000000000000 ) ) ;
#327 = CIRCLE ( 'NONE', #130, 50.00000000000004300 ) ;
#328 = EDGE_CURVE ( 'NONE', #15, #354, #194, .T. ) ;
#329 = DIRECTION ( 'NONE',  ( -1.000000000000000000, 0.0000000000000000000, 0.0000000000000000000 ) ) ;
#330 = LOCAL_TIME ( 7, 59, 23.00000000000000000, #276 ) ;
#331 = DIRECTION ( 'NONE',  ( 1.000000000000000000, 0.0000000000000000000, 0.0000000000000000000 ) ) ;
#332 =( GEOMETRIC_REPRESENTATION_CONTEXT ( 3 ) GLOBAL_UNCERTAINTY_ASSIGNED_CONTEXT ( ( #154 ) ) GLOBAL_UNIT_ASSIGNED_CONTEXT ( ( #301, #61, #251 ) ) REPRESENTATION_CONTEXT ( 'NONE', 'WORKASPACE' ) );
#333 = SHAPE_DEFINITION_REPRESENTATION ( #303, #255 ) ;
#334 = SECURITY_CLASSIFICATION_LEVEL ( 'unclassified' ) ;
#335 = ADVANCED_FACE ( 'NONE', ( #118 ), #170, .F. ) ;
#336 = AXIS2_PLACEMENT_3D ( 'NONE', #123, #317, #156 ) ;
#337 = B_SPLINE_CURVE_WITH_KNOTS ( 'NONE', 2,
 ( #243, #211, #24 ),
 .UNSPECIFIED., .F., .F.,
 ( 3, 3 ),
 ( 0.0000000000000000000, 1.000000000000000000 ),
 .UNSPECIFIED. ) ;
#338 = AXIS2_PLACEMENT_3D ( 'NONE', #220, #59, #249 ) ;
#339 = ORIENTED_EDGE ( 'NONE', *, *, #210, .T. ) ;
#340 = VERTEX_POINT ( 'NONE', #268 ) ;
#341 = B_SPLINE_CURVE_WITH_KNOTS ( 'NONE', 2,
 ( #185, #240, #319 ),
 .UNSPECIFIED., .F., .F.,
 ( 3, 3 ),
 ( 0.0000000000000000000, 1.000000000000000000 ),
 .UNSPECIFIED. ) ;
#342 = TOROIDAL_SURFACE ( 'NONE', #314, 500.0000000000000000, 50.00000000000000000 ) ;
#343 = ORIENTED_EDGE ( 'NONE', *, *, #86, .F. ) ;
#344 = EDGE_CURVE ( 'NONE', #15, #174, #257, .T. ) ;
#345 = CARTESIAN_POINT ( 'NONE',  ( 0.0000000000000000000, 69.99999999999997200, 0.0000000000000000000 ) ) ;
#346 = DIRECTION ( 'NONE',  ( -1.586032892321650700E-015, -1.000000000000000000, -0.0000000000000000000 ) ) ;
#347 = CIRCLE ( 'NONE', #39, 15.27082144506819400 ) ;
#348 = DIRECTION ( 'NONE',  ( 0.0000000000000000000, 0.0000000000000000000, 1.000000000000000000 ) ) ;
#349 = CARTESIAN_POINT ( 'NONE',  ( -582.5923913669937500, 84.99999999999998600, 0.0000000000000000000 ) ) ;
#350 = PLANE ( 'NONE',  #53 ) ;
#351 = AXIS2_PLACEMENT_3D ( 'NONE', #189, #165, #107 ) ;
#352 = DIRECTION ( 'NONE',  ( 3.491481338843133400E-015, -1.541976423090493700E-015, -1.000000000000000000 ) ) ;
#353 = APPROVAL_PERSON_ORGANIZATION ( #71, #148, #114 ) ;
#354 = VERTEX_POINT ( 'NONE', #113 ) ;
#355 = CALENDAR_DATE ( 2020, 25, 5 ) ;
ENDSEC;
END-ISO-10303-21;
