ISO-10303-21;
HEADER;
/* Generated by software containing ST-Developer
 * from STEP Tools, Inc. (www.steptools.com) 
 */
/* OPTION: using custom schema-name function */

FILE_DESCRIPTION(
/* description */ (''),
/* implementation_level */ '2;1');

FILE_NAME(
/* name */ 'Cale Seicento V1.0.stp',
/* time_stamp */ '2020-05-10T22:51:35+02:00',
/* author */ (''),
/* organization */ (''),
/* preprocessor_version */ 'ST-DEVELOPER v11',
/* originating_system */ 'SIEMENS UGS NX 6.0',
/* authorisation */ '');

FILE_SCHEMA (('AUTOMOTIVE_DESIGN { 1 0 10303 214 1 1 1 1 }'));
ENDSEC;

DATA;
#10=SHAPE_REPRESENTATION_RELATIONSHIP('None',
'relationship between Cale Seicento V1.0-None and Cale Seicento V1.0-No
ne',#22,#11);
#11=ADVANCED_BREP_SHAPE_REPRESENTATION('Cale Seicento V1.0-None',(#32),#609);
#12=SHAPE_DEFINITION_REPRESENTATION(#13,#22);
#13=PRODUCT_DEFINITION_SHAPE('','',#14);
#14=PRODUCT_DEFINITION(' ','',#16,#15);
#15=PRODUCT_DEFINITION_CONTEXT('part definition',#21,'design');
#16=PRODUCT_DEFINITION_FORMATION_WITH_SPECIFIED_SOURCE(' ',' ',#18,.NOT_KNOWN.);
#17=PRODUCT_RELATED_PRODUCT_CATEGORY('part','',(#18));
#18=PRODUCT('Cale Seicento V1.0','Cale Seicento V1.0',' ',(#19));
#19=PRODUCT_CONTEXT(' ',#21,'mechanical');
#20=APPLICATION_PROTOCOL_DEFINITION('international standard',
'automotive_design',2001,#21);
#21=APPLICATION_CONTEXT(
'core data for automotive mechanical design processes');
#22=SHAPE_REPRESENTATION('Cale Seicento V1.0-None',(#368),#609);
#23=PRESENTATION_LAYER_ASSIGNMENT('1','Layer 1',(#32));
#24=STYLED_ITEM('',(#25),#32);
#25=PRESENTATION_STYLE_ASSIGNMENT((#26));
#26=SURFACE_STYLE_USAGE(.BOTH.,#27);
#27=SURFACE_SIDE_STYLE('',(#28));
#28=SURFACE_STYLE_FILL_AREA(#29);
#29=FILL_AREA_STYLE('',(#30));
#30=FILL_AREA_STYLE_COLOUR('',#31);
#31=COLOUR_RGB('Medium Steel',0.596063172350652,0.666666666666667,0.686259250782025);
#32=MANIFOLD_SOLID_BREP('',#33);
#33=CLOSED_SHELL('',(#72,#73,#74,#75,#76,#77,#78,#79,#80,#81,#82,#83,#84,
#85,#86,#87,#88,#89,#90,#91));
#34=CONICAL_SURFACE('',#400,5.,44.9999999999999);
#35=CONICAL_SURFACE('',#401,5.,44.9999999999999);
#36=CONICAL_SURFACE('',#405,5.,44.9999999999999);
#37=CONICAL_SURFACE('',#406,5.,44.9999999999999);
#38=FACE_BOUND('',#118,.T.);
#39=FACE_BOUND('',#119,.T.);
#40=FACE_BOUND('',#120,.T.);
#41=FACE_BOUND('',#121,.T.);
#42=FACE_BOUND('',#122,.T.);
#43=FACE_BOUND('',#123,.T.);
#44=FACE_BOUND('',#124,.T.);
#45=FACE_BOUND('',#125,.T.);
#46=FACE_BOUND('',#126,.T.);
#47=FACE_BOUND('',#127,.T.);
#48=FACE_BOUND('',#130,.T.);
#49=FACE_BOUND('',#131,.T.);
#50=FACE_BOUND('',#132,.T.);
#51=FACE_BOUND('',#133,.T.);
#52=FACE_BOUND('',#134,.T.);
#53=FACE_BOUND('',#135,.T.);
#54=FACE_BOUND('',#136,.T.);
#55=FACE_BOUND('',#137,.T.);
#56=FACE_BOUND('',#138,.T.);
#57=FACE_BOUND('',#139,.T.);
#58=FACE_BOUND('',#140,.T.);
#59=FACE_BOUND('',#141,.T.);
#60=FACE_BOUND('',#142,.T.);
#61=FACE_BOUND('',#143,.T.);
#62=FACE_BOUND('',#144,.T.);
#63=FACE_BOUND('',#145,.T.);
#64=PLANE('',#372);
#65=PLANE('',#373);
#66=PLANE('',#374);
#67=PLANE('',#378);
#68=PLANE('',#379);
#69=PLANE('',#380);
#70=PLANE('',#387);
#71=PLANE('',#394);
#72=ADVANCED_FACE('',(#100),#92,.T.);
#73=ADVANCED_FACE('',(#101),#64,.T.);
#74=ADVANCED_FACE('',(#102),#65,.T.);
#75=ADVANCED_FACE('',(#103),#66,.T.);
#76=ADVANCED_FACE('',(#104),#93,.T.);
#77=ADVANCED_FACE('',(#105),#67,.T.);
#78=ADVANCED_FACE('',(#106),#68,.T.);
#79=ADVANCED_FACE('',(#107),#69,.T.);
#80=ADVANCED_FACE('',(#38,#39,#40,#41,#42),#70,.F.);
#81=ADVANCED_FACE('',(#43,#44,#45,#46,#47),#71,.T.);
#82=ADVANCED_FACE('',(#108),#94,.F.);
#83=ADVANCED_FACE('',(#109),#95,.F.);
#84=ADVANCED_FACE('',(#48,#49),#96,.F.);
#85=ADVANCED_FACE('',(#50,#51),#34,.F.);
#86=ADVANCED_FACE('',(#52,#53),#35,.F.);
#87=ADVANCED_FACE('',(#54,#55),#97,.F.);
#88=ADVANCED_FACE('',(#56,#57),#36,.F.);
#89=ADVANCED_FACE('',(#58,#59),#37,.F.);
#90=ADVANCED_FACE('',(#60,#61),#98,.F.);
#91=ADVANCED_FACE('',(#62,#63),#99,.F.);
#92=CYLINDRICAL_SURFACE('',#371,15.);
#93=CYLINDRICAL_SURFACE('',#377,15.);
#94=CYLINDRICAL_SURFACE('',#395,10.);
#95=CYLINDRICAL_SURFACE('',#396,10.);
#96=CYLINDRICAL_SURFACE('',#399,4.25);
#97=CYLINDRICAL_SURFACE('',#404,4.25);
#98=CYLINDRICAL_SURFACE('',#407,5.25);
#99=CYLINDRICAL_SURFACE('',#408,5.25);
#100=FACE_OUTER_BOUND('',#110,.T.);
#101=FACE_OUTER_BOUND('',#111,.T.);
#102=FACE_OUTER_BOUND('',#112,.T.);
#103=FACE_OUTER_BOUND('',#113,.T.);
#104=FACE_OUTER_BOUND('',#114,.T.);
#105=FACE_OUTER_BOUND('',#115,.T.);
#106=FACE_OUTER_BOUND('',#116,.T.);
#107=FACE_OUTER_BOUND('',#117,.T.);
#108=FACE_OUTER_BOUND('',#128,.T.);
#109=FACE_OUTER_BOUND('',#129,.T.);
#110=EDGE_LOOP('',(#190,#191,#192,#193));
#111=EDGE_LOOP('',(#194,#195,#196,#197));
#112=EDGE_LOOP('',(#198,#199,#200,#201));
#113=EDGE_LOOP('',(#202,#203,#204,#205));
#114=EDGE_LOOP('',(#206,#207,#208,#209));
#115=EDGE_LOOP('',(#210,#211,#212,#213));
#116=EDGE_LOOP('',(#214,#215,#216,#217));
#117=EDGE_LOOP('',(#218,#219,#220,#221));
#118=EDGE_LOOP('',(#222));
#119=EDGE_LOOP('',(#223));
#120=EDGE_LOOP('',(#224));
#121=EDGE_LOOP('',(#225));
#122=EDGE_LOOP('',(#226,#227,#228,#229,#230,#231,#232,#233,#234,#235));
#123=EDGE_LOOP('',(#236));
#124=EDGE_LOOP('',(#237));
#125=EDGE_LOOP('',(#238));
#126=EDGE_LOOP('',(#239));
#127=EDGE_LOOP('',(#240,#241,#242,#243,#244,#245,#246,#247,#248,#249));
#128=EDGE_LOOP('',(#250,#251,#252,#253));
#129=EDGE_LOOP('',(#254,#255,#256,#257));
#130=EDGE_LOOP('',(#258));
#131=EDGE_LOOP('',(#259));
#132=EDGE_LOOP('',(#260));
#133=EDGE_LOOP('',(#261));
#134=EDGE_LOOP('',(#262));
#135=EDGE_LOOP('',(#263));
#136=EDGE_LOOP('',(#264));
#137=EDGE_LOOP('',(#265));
#138=EDGE_LOOP('',(#266));
#139=EDGE_LOOP('',(#267));
#140=EDGE_LOOP('',(#268));
#141=EDGE_LOOP('',(#269));
#142=EDGE_LOOP('',(#270));
#143=EDGE_LOOP('',(#271));
#144=EDGE_LOOP('',(#272));
#145=EDGE_LOOP('',(#273));
#146=LINE('',#517,#168);
#147=LINE('',#521,#169);
#148=LINE('',#523,#170);
#149=LINE('',#525,#171);
#150=LINE('',#527,#172);
#151=LINE('',#529,#173);
#152=LINE('',#532,#174);
#153=LINE('',#534,#175);
#154=LINE('',#536,#176);
#155=LINE('',#538,#177);
#156=LINE('',#541,#178);
#157=LINE('',#543,#179);
#158=LINE('',#545,#180);
#159=LINE('',#551,#181);
#160=LINE('',#553,#182);
#161=LINE('',#555,#183);
#162=LINE('',#557,#184);
#163=LINE('',#559,#185);
#164=LINE('',#561,#186);
#165=LINE('',#563,#187);
#166=LINE('',#565,#188);
#167=LINE('',#566,#189);
#168=VECTOR('',#413,1.);
#169=VECTOR('',#416,1.);
#170=VECTOR('',#419,1.);
#171=VECTOR('',#420,1.);
#172=VECTOR('',#421,1.);
#173=VECTOR('',#424,1.);
#174=VECTOR('',#425,1.);
#175=VECTOR('',#426,1.);
#176=VECTOR('',#427,1.);
#177=VECTOR('',#430,1.);
#178=VECTOR('',#431,1.);
#179=VECTOR('',#432,1.);
#180=VECTOR('',#433,1.);
#181=VECTOR('',#440,1.);
#182=VECTOR('',#443,1.);
#183=VECTOR('',#444,1.);
#184=VECTOR('',#445,1.);
#185=VECTOR('',#448,1.);
#186=VECTOR('',#449,1.);
#187=VECTOR('',#450,1.);
#188=VECTOR('',#453,1.);
#189=VECTOR('',#454,1.);
#190=ORIENTED_EDGE('',*,*,#306,.F.);
#191=ORIENTED_EDGE('',*,*,#307,.F.);
#192=ORIENTED_EDGE('',*,*,#308,.T.);
#193=ORIENTED_EDGE('',*,*,#309,.T.);
#194=ORIENTED_EDGE('',*,*,#310,.T.);
#195=ORIENTED_EDGE('',*,*,#311,.T.);
#196=ORIENTED_EDGE('',*,*,#312,.F.);
#197=ORIENTED_EDGE('',*,*,#309,.F.);
#198=ORIENTED_EDGE('',*,*,#313,.T.);
#199=ORIENTED_EDGE('',*,*,#314,.T.);
#200=ORIENTED_EDGE('',*,*,#315,.F.);
#201=ORIENTED_EDGE('',*,*,#316,.T.);
#202=ORIENTED_EDGE('',*,*,#317,.F.);
#203=ORIENTED_EDGE('',*,*,#318,.T.);
#204=ORIENTED_EDGE('',*,*,#319,.T.);
#205=ORIENTED_EDGE('',*,*,#320,.T.);
#206=ORIENTED_EDGE('',*,*,#321,.F.);
#207=ORIENTED_EDGE('',*,*,#320,.F.);
#208=ORIENTED_EDGE('',*,*,#322,.T.);
#209=ORIENTED_EDGE('',*,*,#323,.T.);
#210=ORIENTED_EDGE('',*,*,#324,.F.);
#211=ORIENTED_EDGE('',*,*,#323,.F.);
#212=ORIENTED_EDGE('',*,*,#325,.T.);
#213=ORIENTED_EDGE('',*,*,#326,.T.);
#214=ORIENTED_EDGE('',*,*,#327,.F.);
#215=ORIENTED_EDGE('',*,*,#326,.F.);
#216=ORIENTED_EDGE('',*,*,#328,.T.);
#217=ORIENTED_EDGE('',*,*,#329,.T.);
#218=ORIENTED_EDGE('',*,*,#330,.F.);
#219=ORIENTED_EDGE('',*,*,#329,.F.);
#220=ORIENTED_EDGE('',*,*,#331,.T.);
#221=ORIENTED_EDGE('',*,*,#307,.T.);
#222=ORIENTED_EDGE('',*,*,#332,.T.);
#223=ORIENTED_EDGE('',*,*,#333,.T.);
#224=ORIENTED_EDGE('',*,*,#334,.T.);
#225=ORIENTED_EDGE('',*,*,#335,.T.);
#226=ORIENTED_EDGE('',*,*,#331,.F.);
#227=ORIENTED_EDGE('',*,*,#328,.F.);
#228=ORIENTED_EDGE('',*,*,#325,.F.);
#229=ORIENTED_EDGE('',*,*,#322,.F.);
#230=ORIENTED_EDGE('',*,*,#319,.F.);
#231=ORIENTED_EDGE('',*,*,#336,.T.);
#232=ORIENTED_EDGE('',*,*,#313,.F.);
#233=ORIENTED_EDGE('',*,*,#337,.T.);
#234=ORIENTED_EDGE('',*,*,#310,.F.);
#235=ORIENTED_EDGE('',*,*,#308,.F.);
#236=ORIENTED_EDGE('',*,*,#338,.T.);
#237=ORIENTED_EDGE('',*,*,#339,.T.);
#238=ORIENTED_EDGE('',*,*,#340,.T.);
#239=ORIENTED_EDGE('',*,*,#341,.T.);
#240=ORIENTED_EDGE('',*,*,#330,.T.);
#241=ORIENTED_EDGE('',*,*,#306,.T.);
#242=ORIENTED_EDGE('',*,*,#312,.T.);
#243=ORIENTED_EDGE('',*,*,#342,.T.);
#244=ORIENTED_EDGE('',*,*,#315,.T.);
#245=ORIENTED_EDGE('',*,*,#343,.T.);
#246=ORIENTED_EDGE('',*,*,#317,.T.);
#247=ORIENTED_EDGE('',*,*,#321,.T.);
#248=ORIENTED_EDGE('',*,*,#324,.T.);
#249=ORIENTED_EDGE('',*,*,#327,.T.);
#250=ORIENTED_EDGE('',*,*,#336,.F.);
#251=ORIENTED_EDGE('',*,*,#318,.F.);
#252=ORIENTED_EDGE('',*,*,#343,.F.);
#253=ORIENTED_EDGE('',*,*,#314,.F.);
#254=ORIENTED_EDGE('',*,*,#337,.F.);
#255=ORIENTED_EDGE('',*,*,#316,.F.);
#256=ORIENTED_EDGE('',*,*,#342,.F.);
#257=ORIENTED_EDGE('',*,*,#311,.F.);
#258=ORIENTED_EDGE('',*,*,#344,.T.);
#259=ORIENTED_EDGE('',*,*,#345,.T.);
#260=ORIENTED_EDGE('',*,*,#345,.F.);
#261=ORIENTED_EDGE('',*,*,#341,.F.);
#262=ORIENTED_EDGE('',*,*,#344,.F.);
#263=ORIENTED_EDGE('',*,*,#335,.F.);
#264=ORIENTED_EDGE('',*,*,#346,.T.);
#265=ORIENTED_EDGE('',*,*,#347,.T.);
#266=ORIENTED_EDGE('',*,*,#347,.F.);
#267=ORIENTED_EDGE('',*,*,#340,.F.);
#268=ORIENTED_EDGE('',*,*,#346,.F.);
#269=ORIENTED_EDGE('',*,*,#334,.F.);
#270=ORIENTED_EDGE('',*,*,#339,.F.);
#271=ORIENTED_EDGE('',*,*,#333,.F.);
#272=ORIENTED_EDGE('',*,*,#338,.F.);
#273=ORIENTED_EDGE('',*,*,#332,.F.);
#274=VERTEX_POINT('',#515);
#275=VERTEX_POINT('',#516);
#276=VERTEX_POINT('',#518);
#277=VERTEX_POINT('',#520);
#278=VERTEX_POINT('',#524);
#279=VERTEX_POINT('',#526);
#280=VERTEX_POINT('',#530);
#281=VERTEX_POINT('',#531);
#282=VERTEX_POINT('',#533);
#283=VERTEX_POINT('',#535);
#284=VERTEX_POINT('',#539);
#285=VERTEX_POINT('',#540);
#286=VERTEX_POINT('',#542);
#287=VERTEX_POINT('',#544);
#288=VERTEX_POINT('',#548);
#289=VERTEX_POINT('',#550);
#290=VERTEX_POINT('',#554);
#291=VERTEX_POINT('',#556);
#292=VERTEX_POINT('',#560);
#293=VERTEX_POINT('',#562);
#294=VERTEX_POINT('',#569);
#295=VERTEX_POINT('',#571);
#296=VERTEX_POINT('',#573);
#297=VERTEX_POINT('',#575);
#298=VERTEX_POINT('',#580);
#299=VERTEX_POINT('',#582);
#300=VERTEX_POINT('',#584);
#301=VERTEX_POINT('',#586);
#302=VERTEX_POINT('',#593);
#303=VERTEX_POINT('',#595);
#304=VERTEX_POINT('',#600);
#305=VERTEX_POINT('',#602);
#306=EDGE_CURVE('',#274,#275,#348,.T.);
#307=EDGE_CURVE('',#276,#274,#146,.T.);
#308=EDGE_CURVE('',#276,#277,#349,.T.);
#309=EDGE_CURVE('',#277,#275,#147,.T.);
#310=EDGE_CURVE('',#277,#278,#148,.T.);
#311=EDGE_CURVE('',#278,#279,#149,.T.);
#312=EDGE_CURVE('',#275,#279,#150,.T.);
#313=EDGE_CURVE('',#280,#281,#151,.T.);
#314=EDGE_CURVE('',#281,#282,#152,.T.);
#315=EDGE_CURVE('',#283,#282,#153,.T.);
#316=EDGE_CURVE('',#283,#280,#154,.T.);
#317=EDGE_CURVE('',#284,#285,#155,.T.);
#318=EDGE_CURVE('',#284,#286,#156,.T.);
#319=EDGE_CURVE('',#286,#287,#157,.T.);
#320=EDGE_CURVE('',#287,#285,#158,.T.);
#321=EDGE_CURVE('',#285,#288,#350,.T.);
#322=EDGE_CURVE('',#287,#289,#351,.T.);
#323=EDGE_CURVE('',#289,#288,#159,.T.);
#324=EDGE_CURVE('',#288,#290,#160,.T.);
#325=EDGE_CURVE('',#289,#291,#161,.T.);
#326=EDGE_CURVE('',#291,#290,#162,.T.);
#327=EDGE_CURVE('',#290,#292,#163,.T.);
#328=EDGE_CURVE('',#291,#293,#164,.T.);
#329=EDGE_CURVE('',#293,#292,#165,.T.);
#330=EDGE_CURVE('',#292,#274,#166,.T.);
#331=EDGE_CURVE('',#293,#276,#167,.T.);
#332=EDGE_CURVE('',#294,#294,#352,.T.);
#333=EDGE_CURVE('',#295,#295,#353,.T.);
#334=EDGE_CURVE('',#296,#296,#354,.T.);
#335=EDGE_CURVE('',#297,#297,#355,.T.);
#336=EDGE_CURVE('',#286,#281,#356,.T.);
#337=EDGE_CURVE('',#280,#278,#357,.T.);
#338=EDGE_CURVE('',#298,#298,#358,.T.);
#339=EDGE_CURVE('',#299,#299,#359,.T.);
#340=EDGE_CURVE('',#300,#300,#360,.T.);
#341=EDGE_CURVE('',#301,#301,#361,.T.);
#342=EDGE_CURVE('',#279,#283,#362,.T.);
#343=EDGE_CURVE('',#282,#284,#363,.T.);
#344=EDGE_CURVE('',#302,#302,#364,.T.);
#345=EDGE_CURVE('',#303,#303,#365,.T.);
#346=EDGE_CURVE('',#304,#304,#366,.T.);
#347=EDGE_CURVE('',#305,#305,#367,.T.);
#348=CIRCLE('',#369,15.);
#349=CIRCLE('',#370,15.);
#350=CIRCLE('',#375,15.);
#351=CIRCLE('',#376,15.);
#352=CIRCLE('',#381,5.25);
#353=CIRCLE('',#382,5.25);
#354=CIRCLE('',#383,5.);
#355=CIRCLE('',#384,5.);
#356=CIRCLE('',#385,10.);
#357=CIRCLE('',#386,10.);
#358=CIRCLE('',#388,5.25);
#359=CIRCLE('',#389,5.25);
#360=CIRCLE('',#390,5.);
#361=CIRCLE('',#391,5.);
#362=CIRCLE('',#392,10.);
#363=CIRCLE('',#393,10.);
#364=CIRCLE('',#397,4.25);
#365=CIRCLE('',#398,4.25);
#366=CIRCLE('',#402,4.25);
#367=CIRCLE('',#403,4.25);
#368=AXIS2_PLACEMENT_3D('',#513,#409,#410);
#369=AXIS2_PLACEMENT_3D('',#514,#411,#412);
#370=AXIS2_PLACEMENT_3D('',#519,#414,#415);
#371=AXIS2_PLACEMENT_3D('',#522,#417,#418);
#372=AXIS2_PLACEMENT_3D('',#528,#422,#423);
#373=AXIS2_PLACEMENT_3D('',#537,#428,#429);
#374=AXIS2_PLACEMENT_3D('',#546,#434,#435);
#375=AXIS2_PLACEMENT_3D('',#547,#436,#437);
#376=AXIS2_PLACEMENT_3D('',#549,#438,#439);
#377=AXIS2_PLACEMENT_3D('',#552,#441,#442);
#378=AXIS2_PLACEMENT_3D('',#558,#446,#447);
#379=AXIS2_PLACEMENT_3D('',#564,#451,#452);
#380=AXIS2_PLACEMENT_3D('',#567,#455,#456);
#381=AXIS2_PLACEMENT_3D('',#568,#457,#458);
#382=AXIS2_PLACEMENT_3D('',#570,#459,#460);
#383=AXIS2_PLACEMENT_3D('',#572,#461,#462);
#384=AXIS2_PLACEMENT_3D('',#574,#463,#464);
#385=AXIS2_PLACEMENT_3D('',#576,#465,#466);
#386=AXIS2_PLACEMENT_3D('',#577,#467,#468);
#387=AXIS2_PLACEMENT_3D('',#578,#469,#470);
#388=AXIS2_PLACEMENT_3D('',#579,#471,#472);
#389=AXIS2_PLACEMENT_3D('',#581,#473,#474);
#390=AXIS2_PLACEMENT_3D('',#583,#475,#476);
#391=AXIS2_PLACEMENT_3D('',#585,#477,#478);
#392=AXIS2_PLACEMENT_3D('',#587,#479,#480);
#393=AXIS2_PLACEMENT_3D('',#588,#481,#482);
#394=AXIS2_PLACEMENT_3D('',#589,#483,#484);
#395=AXIS2_PLACEMENT_3D('',#590,#485,#486);
#396=AXIS2_PLACEMENT_3D('',#591,#487,#488);
#397=AXIS2_PLACEMENT_3D('',#592,#489,#490);
#398=AXIS2_PLACEMENT_3D('',#594,#491,#492);
#399=AXIS2_PLACEMENT_3D('',#596,#493,#494);
#400=AXIS2_PLACEMENT_3D('',#597,#495,#496);
#401=AXIS2_PLACEMENT_3D('',#598,#497,#498);
#402=AXIS2_PLACEMENT_3D('',#599,#499,#500);
#403=AXIS2_PLACEMENT_3D('',#601,#501,#502);
#404=AXIS2_PLACEMENT_3D('',#603,#503,#504);
#405=AXIS2_PLACEMENT_3D('',#604,#505,#506);
#406=AXIS2_PLACEMENT_3D('',#605,#507,#508);
#407=AXIS2_PLACEMENT_3D('',#606,#509,#510);
#408=AXIS2_PLACEMENT_3D('',#607,#511,#512);
#409=DIRECTION('',(0.,0.,1.));
#410=DIRECTION('',(1.,0.,0.));
#411=DIRECTION('',(0.,0.,-1.));
#412=DIRECTION('',(-1.,0.,0.));
#413=DIRECTION('',(0.,0.,-1.));
#414=DIRECTION('',(0.,0.,-1.));
#415=DIRECTION('',(-1.,0.,0.));
#416=DIRECTION('',(0.,0.,-1.));
#417=DIRECTION('',(0.,0.,-1.));
#418=DIRECTION('',(-1.,0.,0.));
#419=DIRECTION('',(0.707106781186547,-0.707106781186548,0.));
#420=DIRECTION('',(0.,0.,-1.));
#421=DIRECTION('',(0.707106781186547,-0.707106781186548,0.));
#422=DIRECTION('',(0.707106781186548,0.707106781186547,0.));
#423=DIRECTION('',(-0.707106781186547,0.707106781186548,0.));
#424=DIRECTION('',(1.,0.,0.));
#425=DIRECTION('',(0.,0.,-1.));
#426=DIRECTION('',(1.,0.,0.));
#427=DIRECTION('',(0.,0.,1.));
#428=DIRECTION('',(0.,1.,0.));
#429=DIRECTION('',(0.,0.,1.));
#430=DIRECTION('',(0.707106781186547,0.707106781186548,0.));
#431=DIRECTION('',(0.,0.,1.));
#432=DIRECTION('',(0.707106781186547,0.707106781186548,0.));
#433=DIRECTION('',(0.,0.,-1.));
#434=DIRECTION('',(-0.707106781186548,0.707106781186547,0.));
#435=DIRECTION('',(-0.707106781186547,-0.707106781186548,0.));
#436=DIRECTION('',(0.,0.,-1.));
#437=DIRECTION('',(1.,0.,0.));
#438=DIRECTION('',(0.,0.,-1.));
#439=DIRECTION('',(1.,0.,0.));
#440=DIRECTION('',(0.,0.,-1.));
#441=DIRECTION('',(0.,0.,-1.));
#442=DIRECTION('',(-1.,0.,0.));
#443=DIRECTION('',(-1.15648231731787E-015,-1.,0.));
#444=DIRECTION('',(3.78485122031303E-015,-1.,0.));
#445=DIRECTION('',(0.,0.,-1.));
#446=DIRECTION('',(1.,-1.15648231731787E-015,0.));
#447=DIRECTION('',(1.1518563880486E-015,1.,0.));
#448=DIRECTION('',(-1.,0.,0.));
#449=DIRECTION('',(-1.,0.,0.));
#450=DIRECTION('',(0.,0.,-1.));
#451=DIRECTION('',(0.,-1.,0.));
#452=DIRECTION('',(0.,0.,-1.));
#453=DIRECTION('',(-1.15648231731787E-015,1.,0.));
#454=DIRECTION('',(3.78485122031303E-015,1.,0.));
#455=DIRECTION('',(-1.,-1.15648231731787E-015,0.));
#456=DIRECTION('',(1.1518563880486E-015,-1.,0.));
#457=DIRECTION('',(0.,0.,-1.));
#458=DIRECTION('',(-1.,0.,0.));
#459=DIRECTION('',(0.,0.,-1.));
#460=DIRECTION('',(-1.,0.,0.));
#461=DIRECTION('',(0.,0.,-1.));
#462=DIRECTION('',(-1.,0.,0.));
#463=DIRECTION('',(0.,0.,-1.));
#464=DIRECTION('',(-1.,0.,0.));
#465=DIRECTION('',(0.,0.,-1.));
#466=DIRECTION('',(-1.,0.,0.));
#467=DIRECTION('',(0.,0.,-1.));
#468=DIRECTION('',(-1.,0.,0.));
#469=DIRECTION('',(0.,0.,-1.));
#470=DIRECTION('',(-1.,0.,0.));
#471=DIRECTION('',(0.,0.,1.));
#472=DIRECTION('',(1.,0.,0.));
#473=DIRECTION('',(0.,0.,1.));
#474=DIRECTION('',(1.,0.,0.));
#475=DIRECTION('',(0.,0.,1.));
#476=DIRECTION('',(-1.,0.,0.));
#477=DIRECTION('',(0.,0.,1.));
#478=DIRECTION('',(-1.,0.,0.));
#479=DIRECTION('',(0.,0.,1.));
#480=DIRECTION('',(-1.,0.,0.));
#481=DIRECTION('',(0.,0.,1.));
#482=DIRECTION('',(-1.,0.,0.));
#483=DIRECTION('',(0.,0.,-1.));
#484=DIRECTION('',(-1.,0.,0.));
#485=DIRECTION('',(0.,0.,1.));
#486=DIRECTION('',(1.,0.,0.));
#487=DIRECTION('',(0.,0.,1.));
#488=DIRECTION('',(1.,0.,0.));
#489=DIRECTION('',(0.,0.,1.));
#490=DIRECTION('',(-1.,0.,0.));
#491=DIRECTION('',(0.,0.,-1.));
#492=DIRECTION('',(-1.,0.,0.));
#493=DIRECTION('',(0.,0.,1.));
#494=DIRECTION('',(1.,0.,0.));
#495=DIRECTION('',(0.,0.,-1.));
#496=DIRECTION('',(-1.,0.,0.));
#497=DIRECTION('',(0.,0.,1.));
#498=DIRECTION('',(1.,0.,-1.00113394633488E-016));
#499=DIRECTION('',(0.,0.,1.));
#500=DIRECTION('',(-1.,0.,0.));
#501=DIRECTION('',(0.,0.,-1.));
#502=DIRECTION('',(-1.,0.,0.));
#503=DIRECTION('',(0.,0.,1.));
#504=DIRECTION('',(1.,0.,0.));
#505=DIRECTION('',(0.,0.,-1.));
#506=DIRECTION('',(-1.,0.,0.));
#507=DIRECTION('',(0.,0.,1.));
#508=DIRECTION('',(1.,0.,-1.00113394633488E-016));
#509=DIRECTION('',(0.,0.,1.));
#510=DIRECTION('',(1.,0.,0.));
#511=DIRECTION('',(0.,0.,1.));
#512=DIRECTION('',(1.,0.,0.));
#513=CARTESIAN_POINT('',(0.,0.,0.));
#514=CARTESIAN_POINT('',(-50.,35.,0.));
#515=CARTESIAN_POINT('',(-65.,35.,0.));
#516=CARTESIAN_POINT('',(-39.3933982822018,45.6066017177982,0.));
#517=CARTESIAN_POINT('',(-65.,35.,13.));
#518=CARTESIAN_POINT('',(-65.,35.,13.));
#519=CARTESIAN_POINT('',(-50.,35.,13.));
#520=CARTESIAN_POINT('',(-39.3933982822018,45.6066017177982,13.));
#521=CARTESIAN_POINT('',(-39.3933982822018,45.6066017177982,13.));
#522=CARTESIAN_POINT('',(-50.,35.,13.));
#523=CARTESIAN_POINT('',(-39.3933982822018,45.6066017177982,13.));
#524=CARTESIAN_POINT('',(-29.7157287525381,35.9289321881345,13.));
#525=CARTESIAN_POINT('',(-29.7157287525381,35.9289321881345,0.));
#526=CARTESIAN_POINT('',(-29.7157287525381,35.9289321881345,0.));
#527=CARTESIAN_POINT('',(-39.3933982822018,45.6066017177982,0.));
#528=CARTESIAN_POINT('',(-39.3933982822018,45.6066017177982,13.));
#529=CARTESIAN_POINT('',(-26.7867965644036,33.,13.));
#530=CARTESIAN_POINT('',(-22.6446609406726,33.,13.));
#531=CARTESIAN_POINT('',(22.6446609406726,33.,13.));
#532=CARTESIAN_POINT('',(22.6446609406726,33.,0.));
#533=CARTESIAN_POINT('',(22.6446609406726,33.,0.));
#534=CARTESIAN_POINT('',(0.,33.,0.));
#535=CARTESIAN_POINT('',(-22.6446609406726,33.,0.));
#536=CARTESIAN_POINT('',(-22.6446609406726,33.,13.));
#537=CARTESIAN_POINT('',(0.,33.,13.));
#538=CARTESIAN_POINT('',(26.7867965644036,33.,0.));
#539=CARTESIAN_POINT('',(29.7157287525381,35.9289321881345,0.));
#540=CARTESIAN_POINT('',(39.3933982822018,45.6066017177982,0.));
#541=CARTESIAN_POINT('',(29.7157287525381,35.9289321881345,13.));
#542=CARTESIAN_POINT('',(29.7157287525381,35.9289321881345,13.));
#543=CARTESIAN_POINT('',(26.7867965644036,33.,13.));
#544=CARTESIAN_POINT('',(39.3933982822018,45.6066017177982,13.));
#545=CARTESIAN_POINT('',(39.3933982822018,45.6066017177982,13.));
#546=CARTESIAN_POINT('',(26.7867965644036,33.,13.));
#547=CARTESIAN_POINT('',(50.,35.,0.));
#548=CARTESIAN_POINT('',(65.,35.,0.));
#549=CARTESIAN_POINT('',(50.,35.,13.));
#550=CARTESIAN_POINT('',(65.,35.,13.));
#551=CARTESIAN_POINT('',(65.,35.,13.));
#552=CARTESIAN_POINT('',(50.,35.,13.));
#553=CARTESIAN_POINT('',(65.,24.,0.));
#554=CARTESIAN_POINT('',(65.,0.,0.));
#555=CARTESIAN_POINT('',(65.,35.,13.));
#556=CARTESIAN_POINT('',(65.,0.,13.));
#557=CARTESIAN_POINT('',(65.,0.,13.));
#558=CARTESIAN_POINT('',(65.,24.,13.));
#559=CARTESIAN_POINT('',(0.,0.,0.));
#560=CARTESIAN_POINT('',(-65.,0.,0.));
#561=CARTESIAN_POINT('',(65.,0.,13.));
#562=CARTESIAN_POINT('',(-65.,0.,13.));
#563=CARTESIAN_POINT('',(-65.,0.,13.));
#564=CARTESIAN_POINT('',(0.,0.,13.));
#565=CARTESIAN_POINT('',(-65.,0.,0.));
#566=CARTESIAN_POINT('',(-65.,24.,13.));
#567=CARTESIAN_POINT('',(-65.,0.,13.));
#568=CARTESIAN_POINT('',(50.,13.,13.));
#569=CARTESIAN_POINT('',(44.75,13.,13.));
#570=CARTESIAN_POINT('',(-50.,13.,13.));
#571=CARTESIAN_POINT('',(-55.25,13.,13.));
#572=CARTESIAN_POINT('',(50.,34.,13.));
#573=CARTESIAN_POINT('',(45.,34.,13.));
#574=CARTESIAN_POINT('',(-50.,34.,13.));
#575=CARTESIAN_POINT('',(-55.,34.,13.));
#576=CARTESIAN_POINT('',(22.6446609406726,43.,13.));
#577=CARTESIAN_POINT('',(-22.6446609406726,43.,13.));
#578=CARTESIAN_POINT('',(-50.,35.,13.));
#579=CARTESIAN_POINT('',(50.,13.,0.));
#580=CARTESIAN_POINT('',(55.25,13.,0.));
#581=CARTESIAN_POINT('',(-50.,13.,0.));
#582=CARTESIAN_POINT('',(-44.75,13.,0.));
#583=CARTESIAN_POINT('',(50.,34.,0.));
#584=CARTESIAN_POINT('',(45.,34.,0.));
#585=CARTESIAN_POINT('',(-50.,34.,0.));
#586=CARTESIAN_POINT('',(-55.,34.,0.));
#587=CARTESIAN_POINT('',(-22.6446609406726,43.,0.));
#588=CARTESIAN_POINT('',(22.6446609406726,43.,0.));
#589=CARTESIAN_POINT('',(-50.,35.,0.));
#590=CARTESIAN_POINT('',(22.6446609406726,43.,13.));
#591=CARTESIAN_POINT('',(-22.6446609406726,43.,13.));
#592=CARTESIAN_POINT('',(-50.,34.,12.25));
#593=CARTESIAN_POINT('',(-54.25,34.,12.25));
#594=CARTESIAN_POINT('',(-50.,34.,0.749999999999999));
#595=CARTESIAN_POINT('',(-54.25,34.,0.749999999999999));
#596=CARTESIAN_POINT('',(-50.,34.,0.));
#597=CARTESIAN_POINT('',(-50.,34.,0.));
#598=CARTESIAN_POINT('',(-50.,34.,13.));
#599=CARTESIAN_POINT('',(50.,34.,12.25));
#600=CARTESIAN_POINT('',(45.75,34.,12.25));
#601=CARTESIAN_POINT('',(50.,34.,0.749999999999999));
#602=CARTESIAN_POINT('',(45.75,34.,0.749999999999999));
#603=CARTESIAN_POINT('',(50.,34.,0.));
#604=CARTESIAN_POINT('',(50.,34.,0.));
#605=CARTESIAN_POINT('',(50.,34.,13.));
#606=CARTESIAN_POINT('',(-50.,13.,0.));
#607=CARTESIAN_POINT('',(50.,13.,0.));
#608=MECHANICAL_DESIGN_GEOMETRIC_PRESENTATION_REPRESENTATION('',(#24),#609);
#609=(
GEOMETRIC_REPRESENTATION_CONTEXT(3)
GLOBAL_UNCERTAINTY_ASSIGNED_CONTEXT((#610))
GLOBAL_UNIT_ASSIGNED_CONTEXT((#616,#612,#611))
REPRESENTATION_CONTEXT('Cale Seicento V1','TOP_LEVEL_ASSEMBLY_PART')
);
#610=UNCERTAINTY_MEASURE_WITH_UNIT(LENGTH_MEASURE(2.E-005),#616,
'DISTANCE_ACCURACY_VALUE','Maximum Tolerance applied to model');
#611=(
NAMED_UNIT(*)
SI_UNIT($,.STERADIAN.)
SOLID_ANGLE_UNIT()
);
#612=(
CONVERSION_BASED_UNIT('DEGREE',#614)
NAMED_UNIT(#613)
PLANE_ANGLE_UNIT()
);
#613=DIMENSIONAL_EXPONENTS(0.,0.,0.,0.,0.,0.,0.);
#614=PLANE_ANGLE_MEASURE_WITH_UNIT(PLANE_ANGLE_MEASURE(0.0174532925),#615);
#615=(
NAMED_UNIT(*)
PLANE_ANGLE_UNIT()
SI_UNIT($,.RADIAN.)
);
#616=(
LENGTH_UNIT()
NAMED_UNIT(*)
SI_UNIT(.MILLI.,.METRE.)
);
ENDSEC;
END-ISO-10303-21;
