ISO-10303-21;
HEADER;
FILE_DESCRIPTION(('STEP AP214'),'1');
FILE_NAME('toto.stp','2020-04-30T16:38:52',(' '),(' '),'Spatial InterOp 3D',' ',' ');
FILE_SCHEMA(('AUTOMOTIVE_DESIGN { 1 0 10303 214 1 1 1 1 }'));
ENDSEC;
DATA;
#1=MECHANICAL_DESIGN_GEOMETRIC_PRESENTATION_REPRESENTATION(' ',(#16,#17,#18,#19,#20,#21,#22,#23,#24,#25,#26,#27,#28,#29,#30,#31,#32,#33),#6);
#2=PRODUCT_DEFINITION_CONTEXT('',#34,'design');
#3=APPLICATION_PROTOCOL_DEFINITION('INTERNATIONAL STANDARD','automotive_design',1994,#34);
#4=PRODUCT_CATEGORY_RELATIONSHIP('NONE','NONE',#35,#36);
#5=SHAPE_DEFINITION_REPRESENTATION(#37,#38);
#6= (GEOMETRIC_REPRESENTATION_CONTEXT(3)GLOBAL_UNCERTAINTY_ASSIGNED_CONTEXT((#41))GLOBAL_UNIT_ASSIGNED_CONTEXT((#43,#44,#45))REPRESENTATION_CONTEXT('NONE','WORKSPACE'));
#7=PROPERTY_DEFINITION_REPRESENTATION(#47,#48);
#8=GENERAL_PROPERTY_ASSOCIATION('','',#49,#47);
#9=PROPERTY_DEFINITION_REPRESENTATION(#50,#51);
#10=GENERAL_PROPERTY_ASSOCIATION('','',#52,#50);
#11=PROPERTY_DEFINITION_REPRESENTATION(#53,#54);
#12=GENERAL_PROPERTY_ASSOCIATION('','',#55,#53);
#16=STYLED_ITEM('',(#56),#57);
#17=STYLED_ITEM('',(#58),#59);
#18=STYLED_ITEM('',(#60),#61);
#19=STYLED_ITEM('',(#62),#63);
#20=STYLED_ITEM('',(#64),#65);
#21=STYLED_ITEM('',(#66),#67);
#22=STYLED_ITEM('',(#68),#69);
#23=STYLED_ITEM('',(#70),#71);
#24=STYLED_ITEM('',(#72),#73);
#25=STYLED_ITEM('',(#74),#75);
#26=STYLED_ITEM('',(#76),#77);
#27=STYLED_ITEM('',(#78),#79);
#28=STYLED_ITEM('',(#80),#81);
#29=STYLED_ITEM('',(#82),#83);
#30=STYLED_ITEM('',(#84),#85);
#31=STYLED_ITEM('',(#86),#87);
#32=STYLED_ITEM('',(#88),#89);
#33=STYLED_ITEM('',(#90),#91);
#34=APPLICATION_CONTEXT(' ');
#35=PRODUCT_CATEGORY('part','NONE');
#36=PRODUCT_RELATED_PRODUCT_CATEGORY('detail',' ',(#92));
#37=PRODUCT_DEFINITION_SHAPE('NONE','NONE',#93);
#38=ADVANCED_BREP_SHAPE_REPRESENTATION('toto',(#94,#95),#6);
#41=UNCERTAINTY_MEASURE_WITH_UNIT(LENGTH_MEASURE(0.001),#43,'','');
#43= (CONVERSION_BASED_UNIT('MILLIMETRE',#98)LENGTH_UNIT()NAMED_UNIT(#101));
#44= (NAMED_UNIT(#103)PLANE_ANGLE_UNIT()SI_UNIT($,.RADIAN.));
#45= (NAMED_UNIT(#103)SOLID_ANGLE_UNIT()SI_UNIT($,.STERADIAN.));
#47=PROPERTY_DEFINITION('PdmObjectId','',#93);
#48=REPRESENTATION('',(#109),#6);
#49=GENERAL_PROPERTY('','19_9da172bb-9cfb-414f-8497-a9a5e1ac4012&3_63265_0_1','');
#50=PROPERTY_DEFINITION('CreationDate','',#93);
#51=REPRESENTATION('',(#110),#6);
#52=GENERAL_PROPERTY('','15/04/2020 04:28:16','');
#53=PROPERTY_DEFINITION('Minor Revision','',#93);
#54=REPRESENTATION('',(#111),#6);
#55=GENERAL_PROPERTY('','0','');
#56=PRESENTATION_STYLE_ASSIGNMENT((#112));
#57=ADVANCED_FACE('',(#113,#114),#115,.F.);
#58=PRESENTATION_STYLE_ASSIGNMENT((#116));
#59=ADVANCED_FACE('',(#117,#118),#119,.T.);
#60=PRESENTATION_STYLE_ASSIGNMENT((#120));
#61=ADVANCED_FACE('',(#121),#122,.T.);
#62=PRESENTATION_STYLE_ASSIGNMENT((#123));
#63=ADVANCED_FACE('',(#124,#125,#126),#127,.F.);
#64=PRESENTATION_STYLE_ASSIGNMENT((#128));
#65=ADVANCED_FACE('',(#129,#130),#131,.F.);
#66=PRESENTATION_STYLE_ASSIGNMENT((#132));
#67=ADVANCED_FACE('',(#133),#134,.T.);
#68=PRESENTATION_STYLE_ASSIGNMENT((#135));
#69=ADVANCED_FACE('',(#136),#137,.T.);
#70=PRESENTATION_STYLE_ASSIGNMENT((#138));
#71=ADVANCED_FACE('',(#139,#140),#141,.F.);
#72=PRESENTATION_STYLE_ASSIGNMENT((#142));
#73=ADVANCED_FACE('',(#143),#144,.T.);
#74=PRESENTATION_STYLE_ASSIGNMENT((#145));
#75=ADVANCED_FACE('',(#146,#147),#148,.T.);
#76=PRESENTATION_STYLE_ASSIGNMENT((#149));
#77=ADVANCED_FACE('',(#150,#151),#152,.T.);
#78=PRESENTATION_STYLE_ASSIGNMENT((#153));
#79=ADVANCED_FACE('',(#154,#155),#156,.T.);
#80=PRESENTATION_STYLE_ASSIGNMENT((#157));
#81=ADVANCED_FACE('',(#158,#159,#160),#161,.T.);
#82=PRESENTATION_STYLE_ASSIGNMENT((#162));
#83=ADVANCED_FACE('',(#163,#164),#165,.F.);
#84=PRESENTATION_STYLE_ASSIGNMENT((#166));
#85=ADVANCED_FACE('',(#167),#168,.T.);
#86=PRESENTATION_STYLE_ASSIGNMENT((#169));
#87=ADVANCED_FACE('',(#170),#171,.T.);
#88=PRESENTATION_STYLE_ASSIGNMENT((#172));
#89=ADVANCED_FACE('',(#173),#174,.T.);
#90=PRESENTATION_STYLE_ASSIGNMENT((#175));
#91=ADVANCED_FACE('',(#176),#177,.T.);
#92=PRODUCT('toto','toto','PART-toto-DESC',(#178));
#93=PRODUCT_DEFINITION('','NONE',#179,#2);
#94=MANIFOLD_SOLID_BREP('toto',#180);
#95=AXIS2_PLACEMENT_3D('',#181,#182,#183);
#98=LENGTH_MEASURE_WITH_UNIT(LENGTH_MEASURE(1.0),#184);
#101=DIMENSIONAL_EXPONENTS(1.0,0.0,0.0,0.0,0.0,0.0,0.0);
#103=DIMENSIONAL_EXPONENTS(0.0,0.0,0.0,0.0,0.0,0.0,0.0);
#109=DESCRIPTIVE_REPRESENTATION_ITEM('','19_9da172bb-9cfb-414f-8497-a9a5e1ac4012&3_63265_0_1');
#110=DESCRIPTIVE_REPRESENTATION_ITEM('','15/04/2020 04:28:16');
#111=DESCRIPTIVE_REPRESENTATION_ITEM('','0');
#112=SURFACE_STYLE_USAGE(.BOTH.,#185);
#113=FACE_OUTER_BOUND('',#186,.T.);
#114=FACE_OUTER_BOUND('',#187,.T.);
#115=TOROIDAL_SURFACE('',#188,1.95,0.2);
#116=SURFACE_STYLE_USAGE(.BOTH.,#189);
#117=FACE_OUTER_BOUND('',#190,.T.);
#118=FACE_OUTER_BOUND('',#191,.T.);
#119=CYLINDRICAL_SURFACE('',#192,1.75);
#120=SURFACE_STYLE_USAGE(.BOTH.,#193);
#121=FACE_OUTER_BOUND('',#194,.T.);
#122=PLANE('',#195);
#123=SURFACE_STYLE_USAGE(.BOTH.,#196);
#124=FACE_BOUND('',#197,.T.);
#125=FACE_BOUND('',#198,.T.);
#126=FACE_OUTER_BOUND('',#199,.T.);
#127=PLANE('',#200);
#128=SURFACE_STYLE_USAGE(.BOTH.,#201);
#129=FACE_OUTER_BOUND('',#202,.T.);
#130=FACE_OUTER_BOUND('',#203,.T.);
#131=CYLINDRICAL_SURFACE('',#204,0.9);
#132=SURFACE_STYLE_USAGE(.BOTH.,#205);
#133=FACE_OUTER_BOUND('',#206,.T.);
#134=CYLINDRICAL_SURFACE('',#207,2.5);
#135=SURFACE_STYLE_USAGE(.BOTH.,#208);
#136=FACE_OUTER_BOUND('',#209,.T.);
#137=PLANE('',#210);
#138=SURFACE_STYLE_USAGE(.BOTH.,#211);
#139=FACE_OUTER_BOUND('',#212,.T.);
#140=FACE_OUTER_BOUND('',#213,.T.);
#141=CYLINDRICAL_SURFACE('',#214,0.9);
#142=SURFACE_STYLE_USAGE(.BOTH.,#215);
#143=FACE_OUTER_BOUND('',#216,.T.);
#144=PLANE('',#217);
#145=SURFACE_STYLE_USAGE(.BOTH.,#218);
#146=FACE_OUTER_BOUND('',#219,.T.);
#147=FACE_OUTER_BOUND('',#220,.T.);
#148=CYLINDRICAL_SURFACE('',#221,1.75);
#149=SURFACE_STYLE_USAGE(.BOTH.,#222);
#150=FACE_BOUND('',#223,.T.);
#151=FACE_OUTER_BOUND('',#224,.T.);
#152=PLANE('',#225);
#153=SURFACE_STYLE_USAGE(.BOTH.,#226);
#154=FACE_BOUND('',#227,.T.);
#155=FACE_OUTER_BOUND('',#228,.T.);
#156=PLANE('',#229);
#157=SURFACE_STYLE_USAGE(.BOTH.,#230);
#158=FACE_BOUND('',#231,.T.);
#159=FACE_BOUND('',#232,.T.);
#160=FACE_OUTER_BOUND('',#233,.T.);
#161=PLANE('',#234);
#162=SURFACE_STYLE_USAGE(.BOTH.,#235);
#163=FACE_OUTER_BOUND('',#236,.T.);
#164=FACE_OUTER_BOUND('',#237,.T.);
#165=TOROIDAL_SURFACE('',#238,1.95,0.2);
#166=SURFACE_STYLE_USAGE(.BOTH.,#239);
#167=FACE_OUTER_BOUND('',#240,.T.);
#168=PLANE('',#241);
#169=SURFACE_STYLE_USAGE(.BOTH.,#242);
#170=FACE_OUTER_BOUND('',#243,.T.);
#171=CYLINDRICAL_SURFACE('',#244,2.5);
#172=SURFACE_STYLE_USAGE(.BOTH.,#245);
#173=FACE_OUTER_BOUND('',#246,.T.);
#174=PLANE('',#247);
#175=SURFACE_STYLE_USAGE(.BOTH.,#248);
#176=FACE_OUTER_BOUND('',#249,.T.);
#177=PLANE('',#250);
#178=PRODUCT_CONTEXT('',#34,'mechanical');
#179=PRODUCT_DEFINITION_FORMATION_WITH_SPECIFIED_SOURCE('A','NONE',#92,.NOT_KNOWN.);
#180=CLOSED_SHELL('',(#57,#59,#61,#63,#65,#67,#69,#71,#73,#75,#77,#79,#81,#83,#85,#87,#89,#91));
#181=CARTESIAN_POINT('',(0.0,0.0,0.0));
#182=DIRECTION('',(0.0,0.0,1.0));
#183=DIRECTION('',(1.0,0.0,0.0));
#184= (NAMED_UNIT(#101)LENGTH_UNIT()SI_UNIT(.MILLI.,.METRE.));
#185=SURFACE_SIDE_STYLE('',(#252));
#186=EDGE_LOOP('',(#253));
#187=EDGE_LOOP('',(#254));
#188=AXIS2_PLACEMENT_3D('',#255,#256,#257);
#189=SURFACE_SIDE_STYLE('',(#258));
#190=EDGE_LOOP('',(#259));
#191=EDGE_LOOP('',(#260));
#192=AXIS2_PLACEMENT_3D('',#261,#262,#263);
#193=SURFACE_SIDE_STYLE('',(#264));
#194=EDGE_LOOP('',(#265,#266,#267,#268));
#195=AXIS2_PLACEMENT_3D('',#269,#270,#271);
#196=SURFACE_SIDE_STYLE('',(#272));
#197=EDGE_LOOP('',(#273));
#198=EDGE_LOOP('',(#274));
#199=EDGE_LOOP('',(#275,#276,#277,#278,#279,#280,#281,#282));
#200=AXIS2_PLACEMENT_3D('',#283,#284,#285);
#201=SURFACE_SIDE_STYLE('',(#286));
#202=EDGE_LOOP('',(#287));
#203=EDGE_LOOP('',(#288));
#204=AXIS2_PLACEMENT_3D('',#289,#290,#291);
#205=SURFACE_SIDE_STYLE('',(#292));
#206=EDGE_LOOP('',(#293,#294,#295,#296));
#207=AXIS2_PLACEMENT_3D('',#297,#298,#299);
#208=SURFACE_SIDE_STYLE('',(#300));
#209=EDGE_LOOP('',(#301,#302,#303,#304));
#210=AXIS2_PLACEMENT_3D('',#305,#306,#307);
#211=SURFACE_SIDE_STYLE('',(#308));
#212=EDGE_LOOP('',(#309));
#213=EDGE_LOOP('',(#310));
#214=AXIS2_PLACEMENT_3D('',#311,#312,#313);
#215=SURFACE_SIDE_STYLE('',(#314));
#216=EDGE_LOOP('',(#315,#316,#317,#318));
#217=AXIS2_PLACEMENT_3D('',#319,#320,#321);
#218=SURFACE_SIDE_STYLE('',(#322));
#219=EDGE_LOOP('',(#323));
#220=EDGE_LOOP('',(#324));
#221=AXIS2_PLACEMENT_3D('',#325,#326,#327);
#222=SURFACE_SIDE_STYLE('',(#328));
#223=EDGE_LOOP('',(#329));
#224=EDGE_LOOP('',(#330));
#225=AXIS2_PLACEMENT_3D('',#331,#332,#333);
#226=SURFACE_SIDE_STYLE('',(#334));
#227=EDGE_LOOP('',(#335));
#228=EDGE_LOOP('',(#336));
#229=AXIS2_PLACEMENT_3D('',#337,#338,#339);
#230=SURFACE_SIDE_STYLE('',(#340));
#231=EDGE_LOOP('',(#341));
#232=EDGE_LOOP('',(#342));
#233=EDGE_LOOP('',(#343,#344,#345,#346,#347,#348,#349,#350));
#234=AXIS2_PLACEMENT_3D('',#351,#352,#353);
#235=SURFACE_SIDE_STYLE('',(#354));
#236=EDGE_LOOP('',(#355));
#237=EDGE_LOOP('',(#356));
#238=AXIS2_PLACEMENT_3D('',#357,#358,#359);
#239=SURFACE_SIDE_STYLE('',(#360));
#240=EDGE_LOOP('',(#361,#362,#363,#364));
#241=AXIS2_PLACEMENT_3D('',#365,#366,#367);
#242=SURFACE_SIDE_STYLE('',(#368));
#243=EDGE_LOOP('',(#369,#370,#371,#372));
#244=AXIS2_PLACEMENT_3D('',#373,#374,#375);
#245=SURFACE_SIDE_STYLE('',(#376));
#246=EDGE_LOOP('',(#377,#378,#379,#380));
#247=AXIS2_PLACEMENT_3D('',#381,#382,#383);
#248=SURFACE_SIDE_STYLE('',(#384));
#249=EDGE_LOOP('',(#385,#386,#387,#388));
#250=AXIS2_PLACEMENT_3D('',#389,#390,#391);
#252=SURFACE_STYLE_FILL_AREA(#392);
#253=ORIENTED_EDGE('',*,*,#393,.F.);
#254=ORIENTED_EDGE('',*,*,#394,.F.);
#255=CARTESIAN_POINT('',(18.0,0.0,3.2));
#256=DIRECTION('',(0.0,0.0,1.0));
#257=DIRECTION('',(1.0,0.0,0.0));
#258=SURFACE_STYLE_FILL_AREA(#395);
#259=ORIENTED_EDGE('',*,*,#394,.T.);
#260=ORIENTED_EDGE('',*,*,#396,.F.);
#261=CARTESIAN_POINT('',(18.0,0.0,3.0));
#262=DIRECTION('',(0.0,0.0,1.0));
#263=DIRECTION('',(1.0,0.0,0.0));
#264=SURFACE_STYLE_FILL_AREA(#397);
#265=ORIENTED_EDGE('',*,*,#398,.F.);
#266=ORIENTED_EDGE('',*,*,#399,.F.);
#267=ORIENTED_EDGE('',*,*,#400,.T.);
#268=ORIENTED_EDGE('',*,*,#401,.T.);
#269=CARTESIAN_POINT('',(17.6608983848623,-3.08253175473055,0.0));
#270=DIRECTION('',(0.5,-0.866025403784439,0.0));
#271=DIRECTION('',(0.866025403784439,0.5,0.0));
#272=SURFACE_STYLE_FILL_AREA(#402);
#273=ORIENTED_EDGE('',*,*,#403,.T.);
#274=ORIENTED_EDGE('',*,*,#404,.T.);
#275=ORIENTED_EDGE('',*,*,#405,.F.);
#276=ORIENTED_EDGE('',*,*,#400,.F.);
#277=ORIENTED_EDGE('',*,*,#406,.F.);
#278=ORIENTED_EDGE('',*,*,#407,.F.);
#279=ORIENTED_EDGE('',*,*,#408,.F.);
#280=ORIENTED_EDGE('',*,*,#409,.F.);
#281=ORIENTED_EDGE('',*,*,#410,.F.);
#282=ORIENTED_EDGE('',*,*,#411,.F.);
#283=CARTESIAN_POINT('',(18.0,-5.42101086242752E-17,0.0));
#284=DIRECTION('',(0.0,0.0,1.0));
#285=DIRECTION('',(1.0,0.0,0.0));
#286=SURFACE_STYLE_FILL_AREA(#412);
#287=ORIENTED_EDGE('',*,*,#403,.F.);
#288=ORIENTED_EDGE('',*,*,#413,.T.);
#289=CARTESIAN_POINT('',(18.0,-5.42101086242752E-17,0.0));
#290=DIRECTION('',(0.0,0.0,1.0));
#291=DIRECTION('',(1.0,0.0,0.0));
#292=SURFACE_STYLE_FILL_AREA(#414);
#293=ORIENTED_EDGE('',*,*,#415,.F.);
#294=ORIENTED_EDGE('',*,*,#401,.F.);
#295=ORIENTED_EDGE('',*,*,#405,.T.);
#296=ORIENTED_EDGE('',*,*,#416,.T.);
#297=CARTESIAN_POINT('',(18.0,-5.42101086242752E-17,0.0));
#298=DIRECTION('',(0.0,0.0,1.0));
#299=DIRECTION('',(1.0,0.0,0.0));
#300=SURFACE_STYLE_FILL_AREA(#417);
#301=ORIENTED_EDGE('',*,*,#418,.F.);
#302=ORIENTED_EDGE('',*,*,#416,.F.);
#303=ORIENTED_EDGE('',*,*,#411,.T.);
#304=ORIENTED_EDGE('',*,*,#419,.T.);
#305=CARTESIAN_POINT('',(15.1856986741084,0.991691675364044,0.0));
#306=DIRECTION('',(-0.608761429008721,0.793353340291235,0.0));
#307=DIRECTION('',(-0.793353340291235,-0.608761429008721,0.0));
#308=SURFACE_STYLE_FILL_AREA(#420);
#309=ORIENTED_EDGE('',*,*,#404,.F.);
#310=ORIENTED_EDGE('',*,*,#421,.T.);
#311=CARTESIAN_POINT('',(-18.0,-5.42101086242752E-17,0.0));
#312=DIRECTION('',(0.0,0.0,1.0));
#313=DIRECTION('',(1.0,0.0,0.0));
#314=SURFACE_STYLE_FILL_AREA(#422);
#315=ORIENTED_EDGE('',*,*,#423,.F.);
#316=ORIENTED_EDGE('',*,*,#424,.F.);
#317=ORIENTED_EDGE('',*,*,#406,.T.);
#318=ORIENTED_EDGE('',*,*,#399,.T.);
#319=CARTESIAN_POINT('',(1.3010426069826E-15,-4.0,0.0));
#320=DIRECTION('',(0.0,-1.0,0.0));
#321=DIRECTION('',(1.0,0.0,0.0));
#322=SURFACE_STYLE_FILL_AREA(#425);
#323=ORIENTED_EDGE('',*,*,#426,.T.);
#324=ORIENTED_EDGE('',*,*,#427,.F.);
#325=CARTESIAN_POINT('',(-18.0,0.0,3.0));
#326=DIRECTION('',(0.0,0.0,1.0));
#327=DIRECTION('',(1.0,0.0,0.0));
#328=SURFACE_STYLE_FILL_AREA(#428);
#329=ORIENTED_EDGE('',*,*,#421,.F.);
#330=ORIENTED_EDGE('',*,*,#427,.T.);
#331=CARTESIAN_POINT('',(-18.0,0.0,7.0));
#332=DIRECTION('',(0.0,0.0,1.0));
#333=DIRECTION('',(1.0,0.0,0.0));
#334=SURFACE_STYLE_FILL_AREA(#429);
#335=ORIENTED_EDGE('',*,*,#413,.F.);
#336=ORIENTED_EDGE('',*,*,#396,.T.);
#337=CARTESIAN_POINT('',(18.0,0.0,7.0));
#338=DIRECTION('',(0.0,0.0,1.0));
#339=DIRECTION('',(1.0,0.0,0.0));
#340=SURFACE_STYLE_FILL_AREA(#430);
#341=ORIENTED_EDGE('',*,*,#393,.T.);
#342=ORIENTED_EDGE('',*,*,#431,.T.);
#343=ORIENTED_EDGE('',*,*,#415,.T.);
#344=ORIENTED_EDGE('',*,*,#418,.T.);
#345=ORIENTED_EDGE('',*,*,#432,.T.);
#346=ORIENTED_EDGE('',*,*,#433,.T.);
#347=ORIENTED_EDGE('',*,*,#434,.T.);
#348=ORIENTED_EDGE('',*,*,#435,.T.);
#349=ORIENTED_EDGE('',*,*,#423,.T.);
#350=ORIENTED_EDGE('',*,*,#398,.T.);
#351=CARTESIAN_POINT('',(18.0,-5.42101086242752E-17,3.0));
#352=DIRECTION('',(0.0,0.0,1.0));
#353=DIRECTION('',(1.0,0.0,0.0));
#354=SURFACE_STYLE_FILL_AREA(#436);
#355=ORIENTED_EDGE('',*,*,#431,.F.);
#356=ORIENTED_EDGE('',*,*,#426,.F.);
#357=CARTESIAN_POINT('',(-18.0,0.0,3.2));
#358=DIRECTION('',(0.0,0.0,1.0));
#359=DIRECTION('',(1.0,0.0,0.0));
#360=SURFACE_STYLE_FILL_AREA(#437);
#361=ORIENTED_EDGE('',*,*,#435,.F.);
#362=ORIENTED_EDGE('',*,*,#438,.F.);
#363=ORIENTED_EDGE('',*,*,#407,.T.);
#364=ORIENTED_EDGE('',*,*,#424,.T.);
#365=CARTESIAN_POINT('',(-17.6608983848623,-3.08253175473055,0.0));
#366=DIRECTION('',(-0.5,-0.866025403784439,0.0));
#367=DIRECTION('',(0.866025403784439,-0.5,0.0));
#368=SURFACE_STYLE_FILL_AREA(#439);
#369=ORIENTED_EDGE('',*,*,#434,.F.);
#370=ORIENTED_EDGE('',*,*,#440,.F.);
#371=ORIENTED_EDGE('',*,*,#408,.T.);
#372=ORIENTED_EDGE('',*,*,#438,.T.);
#373=CARTESIAN_POINT('',(-18.0,-5.42101086242752E-17,0.0));
#374=DIRECTION('',(0.0,0.0,1.0));
#375=DIRECTION('',(1.0,0.0,0.0));
#376=SURFACE_STYLE_FILL_AREA(#441);
#377=ORIENTED_EDGE('',*,*,#433,.F.);
#378=ORIENTED_EDGE('',*,*,#442,.F.);
#379=ORIENTED_EDGE('',*,*,#409,.T.);
#380=ORIENTED_EDGE('',*,*,#440,.T.);
#381=CARTESIAN_POINT('',(-15.1856986741084,0.991691675364044,0.0));
#382=DIRECTION('',(0.608761429008721,0.793353340291235,0.0));
#383=DIRECTION('',(-0.793353340291235,0.608761429008721,0.0));
#384=SURFACE_STYLE_FILL_AREA(#443);
#385=ORIENTED_EDGE('',*,*,#432,.F.);
#386=ORIENTED_EDGE('',*,*,#419,.F.);
#387=ORIENTED_EDGE('',*,*,#410,.T.);
#388=ORIENTED_EDGE('',*,*,#442,.T.);
#389=CARTESIAN_POINT('',(2.16840434497101E-16,-5.42101086242752E-17,0.0));
#390=DIRECTION('',(-1.22460635382238E-16,1.0,0.0));
#391=DIRECTION('',(-1.0,-1.22460635382238E-16,0.0));
#392=FILL_AREA_STYLE('',(#444));
#393=EDGE_CURVE('',#445,#445,#446,.F.);
#394=EDGE_CURVE('',#447,#447,#448,.T.);
#395=FILL_AREA_STYLE('',(#449));
#396=EDGE_CURVE('',#450,#450,#451,.T.);
#397=FILL_AREA_STYLE('',(#452));
#398=EDGE_CURVE('',#453,#454,#455,.T.);
#399=EDGE_CURVE('',#456,#453,#457,.T.);
#400=EDGE_CURVE('',#456,#458,#459,.T.);
#401=EDGE_CURVE('',#458,#454,#460,.T.);
#402=FILL_AREA_STYLE('',(#461));
#403=EDGE_CURVE('',#462,#462,#463,.T.);
#404=EDGE_CURVE('',#464,#464,#465,.T.);
#405=EDGE_CURVE('',#458,#466,#467,.T.);
#406=EDGE_CURVE('',#468,#456,#469,.T.);
#407=EDGE_CURVE('',#470,#468,#471,.T.);
#408=EDGE_CURVE('',#472,#470,#473,.T.);
#409=EDGE_CURVE('',#474,#472,#475,.T.);
#410=EDGE_CURVE('',#476,#474,#477,.T.);
#411=EDGE_CURVE('',#466,#476,#478,.T.);
#412=FILL_AREA_STYLE('',(#479));
#413=EDGE_CURVE('',#480,#480,#481,.T.);
#414=FILL_AREA_STYLE('',(#482));
#415=EDGE_CURVE('',#454,#483,#484,.T.);
#416=EDGE_CURVE('',#466,#483,#485,.T.);
#417=FILL_AREA_STYLE('',(#486));
#418=EDGE_CURVE('',#483,#487,#488,.T.);
#419=EDGE_CURVE('',#476,#487,#489,.T.);
#420=FILL_AREA_STYLE('',(#490));
#421=EDGE_CURVE('',#491,#491,#492,.T.);
#422=FILL_AREA_STYLE('',(#493));
#423=EDGE_CURVE('',#494,#453,#495,.T.);
#424=EDGE_CURVE('',#468,#494,#496,.T.);
#425=FILL_AREA_STYLE('',(#497));
#426=EDGE_CURVE('',#498,#498,#499,.T.);
#427=EDGE_CURVE('',#500,#500,#501,.T.);
#428=FILL_AREA_STYLE('',(#502));
#429=FILL_AREA_STYLE('',(#503));
#430=FILL_AREA_STYLE('',(#504));
#431=EDGE_CURVE('',#505,#505,#506,.F.);
#432=EDGE_CURVE('',#487,#507,#508,.T.);
#433=EDGE_CURVE('',#507,#509,#510,.T.);
#434=EDGE_CURVE('',#509,#511,#512,.T.);
#435=EDGE_CURVE('',#511,#494,#513,.T.);
#436=FILL_AREA_STYLE('',(#514));
#437=FILL_AREA_STYLE('',(#515));
#438=EDGE_CURVE('',#470,#511,#516,.T.);
#439=FILL_AREA_STYLE('',(#517));
#440=EDGE_CURVE('',#472,#509,#518,.T.);
#441=FILL_AREA_STYLE('',(#519));
#442=EDGE_CURVE('',#474,#507,#520,.T.);
#443=FILL_AREA_STYLE('',(#521));
#444=FILL_AREA_STYLE_COLOUR('',#522);
#445=VERTEX_POINT('',#523);
#446=CIRCLE('',#524,1.95);
#447=VERTEX_POINT('',#525);
#448=CIRCLE('',#526,1.75);
#449=FILL_AREA_STYLE_COLOUR('',#527);
#450=VERTEX_POINT('',#528);
#451=CIRCLE('',#529,1.75);
#452=FILL_AREA_STYLE_COLOUR('',#530);
#453=VERTEX_POINT('',#531);
#454=VERTEX_POINT('',#532);
#455=LINE('',#533,#534);
#456=VERTEX_POINT('',#535);
#457=LINE('',#536,#537);
#458=VERTEX_POINT('',#538);
#459=LINE('',#539,#540);
#460=LINE('',#541,#542);
#461=FILL_AREA_STYLE_COLOUR('',#543);
#462=VERTEX_POINT('',#544);
#463=CIRCLE('',#545,0.9);
#464=VERTEX_POINT('',#546);
#465=CIRCLE('',#547,0.9);
#466=VERTEX_POINT('',#548);
#467=CIRCLE('',#549,2.5);
#468=VERTEX_POINT('',#550);
#469=LINE('',#551,#552);
#470=VERTEX_POINT('',#553);
#471=LINE('',#554,#555);
#472=VERTEX_POINT('',#556);
#473=CIRCLE('',#557,2.5);
#474=VERTEX_POINT('',#558);
#475=LINE('',#559,#560);
#476=VERTEX_POINT('',#561);
#477=LINE('',#562,#563);
#478=LINE('',#564,#565);
#479=FILL_AREA_STYLE_COLOUR('',#566);
#480=VERTEX_POINT('',#567);
#481=CIRCLE('',#568,0.9);
#482=FILL_AREA_STYLE_COLOUR('',#569);
#483=VERTEX_POINT('',#570);
#484=CIRCLE('',#571,2.5);
#485=LINE('',#572,#573);
#486=FILL_AREA_STYLE_COLOUR('',#574);
#487=VERTEX_POINT('',#575);
#488=LINE('',#576,#577);
#489=LINE('',#578,#579);
#490=FILL_AREA_STYLE_COLOUR('',#580);
#491=VERTEX_POINT('',#581);
#492=CIRCLE('',#582,0.9);
#493=FILL_AREA_STYLE_COLOUR('',#583);
#494=VERTEX_POINT('',#584);
#495=LINE('',#585,#586);
#496=LINE('',#587,#588);
#497=FILL_AREA_STYLE_COLOUR('',#589);
#498=VERTEX_POINT('',#590);
#499=CIRCLE('',#591,1.75);
#500=VERTEX_POINT('',#592);
#501=CIRCLE('',#593,1.75);
#502=FILL_AREA_STYLE_COLOUR('',#594);
#503=FILL_AREA_STYLE_COLOUR('',#595);
#504=FILL_AREA_STYLE_COLOUR('',#596);
#505=VERTEX_POINT('',#597);
#506=CIRCLE('',#598,1.95);
#507=VERTEX_POINT('',#599);
#508=LINE('',#600,#601);
#509=VERTEX_POINT('',#602);
#510=LINE('',#603,#604);
#511=VERTEX_POINT('',#605);
#512=CIRCLE('',#606,2.5);
#513=LINE('',#607,#608);
#514=FILL_AREA_STYLE_COLOUR('',#609);
#515=FILL_AREA_STYLE_COLOUR('',#610);
#516=LINE('',#611,#612);
#517=FILL_AREA_STYLE_COLOUR('',#613);
#518=LINE('',#614,#615);
#519=FILL_AREA_STYLE_COLOUR('',#616);
#520=LINE('',#617,#618);
#521=FILL_AREA_STYLE_COLOUR('',#619);
#522=COLOUR_RGB('',0.501960813999176,1.0,0.0);
#523=CARTESIAN_POINT('',(19.95,-4.77612251667468E-16,3.0));
#524=AXIS2_PLACEMENT_3D('',#620,#621,#622);
#525=CARTESIAN_POINT('',(19.75,0.0,3.2));
#526=AXIS2_PLACEMENT_3D('',#623,#624,#625);
#527=COLOUR_RGB('',0.501960813999176,1.0,0.0);
#528=CARTESIAN_POINT('',(19.75,0.0,7.0));
#529=AXIS2_PLACEMENT_3D('',#626,#627,#628);
#530=COLOUR_RGB('',0.501960813999176,1.0,0.0);
#531=CARTESIAN_POINT('',(16.0717967697245,-4.0,3.0));
#532=CARTESIAN_POINT('',(19.25,-2.1650635094611,3.0));
#533=CARTESIAN_POINT('',(17.6608983848623,-3.08253175473055,3.0));
#534=VECTOR('',#629,1.0);
#535=CARTESIAN_POINT('',(16.0717967697245,-4.0,0.0));
#536=CARTESIAN_POINT('',(16.0717967697245,-4.0,0.0));
#537=VECTOR('',#630,1.0);
#538=CARTESIAN_POINT('',(19.25,-2.1650635094611,0.0));
#539=CARTESIAN_POINT('',(17.6608983848623,-3.08253175473055,0.0));
#540=VECTOR('',#631,1.0);
#541=CARTESIAN_POINT('',(19.25,-2.1650635094611,0.0));
#542=VECTOR('',#632,1.0);
#543=COLOUR_RGB('',0.501960813999176,1.0,0.0);
#544=CARTESIAN_POINT('',(18.9,-5.42101086242752E-17,0.0));
#545=AXIS2_PLACEMENT_3D('',#633,#634,#635);
#546=CARTESIAN_POINT('',(-17.1,-5.42101086242752E-17,0.0));
#547=AXIS2_PLACEMENT_3D('',#636,#637,#638);
#548=CARTESIAN_POINT('',(16.4780964274782,1.98338335072809,0.0));
#549=AXIS2_PLACEMENT_3D('',#639,#640,#641);
#550=CARTESIAN_POINT('',(-16.0717967697245,-4.0,0.0));
#551=CARTESIAN_POINT('',(1.3010426069826E-15,-4.0,0.0));
#552=VECTOR('',#642,1.0);
#553=CARTESIAN_POINT('',(-19.25,-2.1650635094611,0.0));
#554=CARTESIAN_POINT('',(-17.6608983848623,-3.08253175473055,0.0));
#555=VECTOR('',#643,1.0);
#556=CARTESIAN_POINT('',(-16.4780964274782,1.98338335072809,0.0));
#557=AXIS2_PLACEMENT_3D('',#644,#645,#646);
#558=CARTESIAN_POINT('',(-13.8933009207385,-1.75559256693455E-15,0.0));
#559=CARTESIAN_POINT('',(-15.1856986741084,0.991691675364044,0.0));
#560=VECTOR('',#647,1.0);
#561=CARTESIAN_POINT('',(13.8933009207385,-6.50521303491303E-16,0.0));
#562=CARTESIAN_POINT('',(2.16840434497101E-16,-5.42101086242752E-17,0.0));
#563=VECTOR('',#648,1.0);
#564=CARTESIAN_POINT('',(15.1856986741084,0.991691675364044,0.0));
#565=VECTOR('',#649,1.0);
#566=COLOUR_RGB('',0.501960813999176,1.0,0.0);
#567=CARTESIAN_POINT('',(18.9,0.0,7.0));
#568=AXIS2_PLACEMENT_3D('',#650,#651,#652);
#569=COLOUR_RGB('',0.501960813999176,1.0,0.0);
#570=CARTESIAN_POINT('',(16.4780964274782,1.98338335072809,3.0));
#571=AXIS2_PLACEMENT_3D('',#653,#654,#655);
#572=CARTESIAN_POINT('',(16.4780964274782,1.98338335072809,0.0));
#573=VECTOR('',#656,1.0);
#574=COLOUR_RGB('',0.501960813999176,1.0,0.0);
#575=CARTESIAN_POINT('',(13.8933009207385,-6.50521303491303E-16,3.0));
#576=CARTESIAN_POINT('',(15.1856986741084,0.991691675364044,3.0));
#577=VECTOR('',#657,1.0);
#578=CARTESIAN_POINT('',(13.8933009207385,-6.50521303491303E-16,0.0));
#579=VECTOR('',#658,1.0);
#580=COLOUR_RGB('',0.501960813999176,1.0,0.0);
#581=CARTESIAN_POINT('',(-17.1,0.0,7.0));
#582=AXIS2_PLACEMENT_3D('',#659,#660,#661);
#583=COLOUR_RGB('',0.501960813999176,1.0,0.0);
#584=CARTESIAN_POINT('',(-16.0717967697245,-4.0,3.0));
#585=CARTESIAN_POINT('',(1.3010426069826E-15,-4.0,3.0));
#586=VECTOR('',#662,1.0);
#587=CARTESIAN_POINT('',(-16.0717967697245,-4.0,0.0));
#588=VECTOR('',#663,1.0);
#589=COLOUR_RGB('',0.501960813999176,1.0,0.0);
#590=CARTESIAN_POINT('',(-16.25,0.0,3.2));
#591=AXIS2_PLACEMENT_3D('',#664,#665,#666);
#592=CARTESIAN_POINT('',(-16.25,0.0,7.0));
#593=AXIS2_PLACEMENT_3D('',#667,#668,#669);
#594=COLOUR_RGB('',0.501960813999176,1.0,0.0);
#595=COLOUR_RGB('',0.501960813999176,1.0,0.0);
#596=COLOUR_RGB('',0.501960813999176,1.0,0.0);
#597=CARTESIAN_POINT('',(-16.05,-4.77612251667468E-16,3.0));
#598=AXIS2_PLACEMENT_3D('',#670,#671,#672);
#599=CARTESIAN_POINT('',(-13.8933009207385,-1.75559256693455E-15,3.0));
#600=CARTESIAN_POINT('',(2.16840434497101E-16,-5.42101086242752E-17,3.0));
#601=VECTOR('',#673,1.0);
#602=CARTESIAN_POINT('',(-16.4780964274782,1.98338335072809,3.0));
#603=CARTESIAN_POINT('',(-15.1856986741084,0.991691675364044,3.0));
#604=VECTOR('',#674,1.0);
#605=CARTESIAN_POINT('',(-19.25,-2.1650635094611,3.0));
#606=AXIS2_PLACEMENT_3D('',#675,#676,#677);
#607=CARTESIAN_POINT('',(-17.6608983848623,-3.08253175473055,3.0));
#608=VECTOR('',#678,1.0);
#609=COLOUR_RGB('',0.501960813999176,1.0,0.0);
#610=COLOUR_RGB('',0.501960813999176,1.0,0.0);
#611=CARTESIAN_POINT('',(-19.25,-2.1650635094611,0.0));
#612=VECTOR('',#679,1.0);
#613=COLOUR_RGB('',0.501960813999176,1.0,0.0);
#614=CARTESIAN_POINT('',(-16.4780964274782,1.98338335072809,0.0));
#615=VECTOR('',#680,1.0);
#616=COLOUR_RGB('',0.501960813999176,1.0,0.0);
#617=CARTESIAN_POINT('',(-13.8933009207385,-1.75559256693455E-15,0.0));
#618=VECTOR('',#681,1.0);
#619=COLOUR_RGB('',0.501960813999176,1.0,0.0);
#620=CARTESIAN_POINT('',(18.0,0.0,3.0));
#621=DIRECTION('',(0.0,0.0,1.0));
#622=DIRECTION('',(1.0,0.0,0.0));
#623=CARTESIAN_POINT('',(18.0,0.0,3.2));
#624=DIRECTION('',(0.0,0.0,1.0));
#625=DIRECTION('',(1.0,0.0,0.0));
#626=CARTESIAN_POINT('',(18.0,0.0,7.0));
#627=DIRECTION('',(0.0,0.0,1.0));
#628=DIRECTION('',(1.0,0.0,0.0));
#629=DIRECTION('',(0.866025403784439,0.5,0.0));
#630=DIRECTION('',(0.0,0.0,1.0));
#631=DIRECTION('',(0.866025403784439,0.5,0.0));
#632=DIRECTION('',(0.0,0.0,1.0));
#633=CARTESIAN_POINT('',(18.0,-5.42101086242752E-17,0.0));
#634=DIRECTION('',(0.0,0.0,1.0));
#635=DIRECTION('',(1.0,0.0,0.0));
#636=CARTESIAN_POINT('',(-18.0,-5.42101086242752E-17,0.0));
#637=DIRECTION('',(0.0,0.0,1.0));
#638=DIRECTION('',(1.0,0.0,0.0));
#639=CARTESIAN_POINT('',(18.0,-5.42101086242752E-17,0.0));
#640=DIRECTION('',(0.0,0.0,1.0));
#641=DIRECTION('',(1.0,0.0,0.0));
#642=DIRECTION('',(1.0,0.0,0.0));
#643=DIRECTION('',(0.866025403784439,-0.5,0.0));
#644=CARTESIAN_POINT('',(-18.0,-5.42101086242752E-17,0.0));
#645=DIRECTION('',(0.0,0.0,1.0));
#646=DIRECTION('',(1.0,0.0,0.0));
#647=DIRECTION('',(-0.793353340291235,0.608761429008721,0.0));
#648=DIRECTION('',(-1.0,-1.22460635382238E-16,0.0));
#649=DIRECTION('',(-0.793353340291235,-0.608761429008721,0.0));
#650=CARTESIAN_POINT('',(18.0,0.0,7.0));
#651=DIRECTION('',(0.0,0.0,1.0));
#652=DIRECTION('',(1.0,0.0,0.0));
#653=CARTESIAN_POINT('',(18.0,-5.42101086242752E-17,3.0));
#654=DIRECTION('',(0.0,0.0,1.0));
#655=DIRECTION('',(1.0,0.0,0.0));
#656=DIRECTION('',(0.0,0.0,1.0));
#657=DIRECTION('',(-0.793353340291235,-0.608761429008721,0.0));
#658=DIRECTION('',(0.0,0.0,1.0));
#659=CARTESIAN_POINT('',(-18.0,0.0,7.0));
#660=DIRECTION('',(0.0,0.0,1.0));
#661=DIRECTION('',(1.0,0.0,0.0));
#662=DIRECTION('',(1.0,0.0,0.0));
#663=DIRECTION('',(0.0,0.0,1.0));
#664=CARTESIAN_POINT('',(-18.0,0.0,3.2));
#665=DIRECTION('',(0.0,0.0,1.0));
#666=DIRECTION('',(1.0,0.0,0.0));
#667=CARTESIAN_POINT('',(-18.0,0.0,7.0));
#668=DIRECTION('',(0.0,0.0,1.0));
#669=DIRECTION('',(1.0,0.0,0.0));
#670=CARTESIAN_POINT('',(-18.0,0.0,3.0));
#671=DIRECTION('',(0.0,0.0,1.0));
#672=DIRECTION('',(1.0,0.0,0.0));
#673=DIRECTION('',(-1.0,-1.22460635382238E-16,0.0));
#674=DIRECTION('',(-0.793353340291235,0.608761429008721,0.0));
#675=CARTESIAN_POINT('',(-18.0,-5.42101086242752E-17,3.0));
#676=DIRECTION('',(0.0,0.0,1.0));
#677=DIRECTION('',(1.0,0.0,0.0));
#678=DIRECTION('',(0.866025403784439,-0.5,0.0));
#679=DIRECTION('',(0.0,0.0,1.0));
#680=DIRECTION('',(0.0,0.0,1.0));
#681=DIRECTION('',(0.0,0.0,1.0));
ENDSEC;
END-ISO-10303-21;
