ISO-10303-21;
HEADER;
/* Generated by software containing ST-Developer
 * from STEP Tools, Inc. (www.steptools.com) 
 */

FILE_DESCRIPTION(
/* description */ (''),
/* implementation_level */ '2;1');

FILE_NAME(
/* name */ 'C:/Users/Kevin.Z/Desktop/ANGLE TRIANGLE 60DEGRES v6.step',
/* time_stamp */ '2020-05-10T10:06:20+02:00',
/* author */ (''),
/* organization */ (''),
/* preprocessor_version */ 'ST-DEVELOPER v18.1',
/* originating_system */ 'Autodesk Translation Framework v9.2.0.1227',
/* authorisation */ '');

FILE_SCHEMA (('AUTOMOTIVE_DESIGN { 1 0 10303 214 3 1 1 }'));
ENDSEC;

DATA;
#10=MECHANICAL_DESIGN_GEOMETRIC_PRESENTATION_REPRESENTATION('',(#13),#569);
#11=SHAPE_REPRESENTATION_RELATIONSHIP('SRR','None',#576,#12);
#12=ADVANCED_BREP_SHAPE_REPRESENTATION('',(#14),#568);
#13=STYLED_ITEM('',(#585),#14);
#14=MANIFOLD_SOLID_BREP('Body1',#321);
#15=FACE_BOUND('',#59,.T.);
#16=FACE_BOUND('',#64,.T.);
#17=FACE_BOUND('',#69,.T.);
#18=FACE_BOUND('',#70,.T.);
#19=FACE_BOUND('',#72,.T.);
#20=FACE_BOUND('',#73,.T.);
#21=PLANE('',#349);
#22=PLANE('',#359);
#23=PLANE('',#367);
#24=PLANE('',#368);
#25=PLANE('',#369);
#26=PLANE('',#370);
#27=PLANE('',#371);
#28=PLANE('',#372);
#29=CYLINDRICAL_SURFACE('',#338,3.05);
#30=CYLINDRICAL_SURFACE('',#344,3.05);
#31=CYLINDRICAL_SURFACE('',#353,5.6505);
#32=CYLINDRICAL_SURFACE('',#356,5.13675);
#33=CYLINDRICAL_SURFACE('',#363,5.6505);
#34=CYLINDRICAL_SURFACE('',#366,5.13675);
#35=FACE_OUTER_BOUND('',#53,.T.);
#36=FACE_OUTER_BOUND('',#54,.T.);
#37=FACE_OUTER_BOUND('',#55,.T.);
#38=FACE_OUTER_BOUND('',#56,.T.);
#39=FACE_OUTER_BOUND('',#57,.T.);
#40=FACE_OUTER_BOUND('',#58,.T.);
#41=FACE_OUTER_BOUND('',#60,.T.);
#42=FACE_OUTER_BOUND('',#61,.T.);
#43=FACE_OUTER_BOUND('',#62,.T.);
#44=FACE_OUTER_BOUND('',#63,.T.);
#45=FACE_OUTER_BOUND('',#65,.T.);
#46=FACE_OUTER_BOUND('',#66,.T.);
#47=FACE_OUTER_BOUND('',#67,.T.);
#48=FACE_OUTER_BOUND('',#68,.T.);
#49=FACE_OUTER_BOUND('',#71,.T.);
#50=FACE_OUTER_BOUND('',#74,.T.);
#51=FACE_OUTER_BOUND('',#75,.T.);
#52=FACE_OUTER_BOUND('',#76,.T.);
#53=EDGE_LOOP('',(#215,#216,#217,#218));
#54=EDGE_LOOP('',(#219,#220,#221,#222,#223,#224));
#55=EDGE_LOOP('',(#225,#226,#227,#228));
#56=EDGE_LOOP('',(#229,#230,#231,#232,#233,#234));
#57=EDGE_LOOP('',(#235,#236,#237));
#58=EDGE_LOOP('',(#238,#239));
#59=EDGE_LOOP('',(#240));
#60=EDGE_LOOP('',(#241,#242,#243,#244,#245,#246));
#61=EDGE_LOOP('',(#247,#248,#249,#250));
#62=EDGE_LOOP('',(#251,#252,#253));
#63=EDGE_LOOP('',(#254,#255));
#64=EDGE_LOOP('',(#256));
#65=EDGE_LOOP('',(#257,#258,#259,#260,#261,#262));
#66=EDGE_LOOP('',(#263,#264,#265,#266));
#67=EDGE_LOOP('',(#267,#268,#269,#270));
#68=EDGE_LOOP('',(#271,#272,#273,#274));
#69=EDGE_LOOP('',(#275,#276));
#70=EDGE_LOOP('',(#277,#278));
#71=EDGE_LOOP('',(#279,#280,#281,#282));
#72=EDGE_LOOP('',(#283,#284));
#73=EDGE_LOOP('',(#285,#286));
#74=EDGE_LOOP('',(#287,#288,#289,#290));
#75=EDGE_LOOP('',(#291,#292,#293,#294));
#76=EDGE_LOOP('',(#295,#296,#297,#298));
#77=LINE('',#480,#99);
#78=LINE('',#486,#100);
#79=LINE('',#493,#101);
#80=LINE('',#499,#102);
#81=LINE('',#504,#103);
#82=LINE('',#517,#104);
#83=LINE('',#519,#105);
#84=LINE('',#524,#106);
#85=LINE('',#537,#107);
#86=LINE('',#539,#108);
#87=LINE('',#543,#109);
#88=LINE('',#545,#110);
#89=LINE('',#547,#111);
#90=LINE('',#548,#112);
#91=LINE('',#551,#113);
#92=LINE('',#553,#114);
#93=LINE('',#554,#115);
#94=LINE('',#557,#116);
#95=LINE('',#559,#117);
#96=LINE('',#560,#118);
#97=LINE('',#562,#119);
#98=LINE('',#563,#120);
#99=VECTOR('',#381,1.525);
#100=VECTOR('',#388,3.05);
#101=VECTOR('',#395,1.525);
#102=VECTOR('',#402,3.05);
#103=VECTOR('',#407,2.5685);
#104=VECTOR('',#422,5.6505);
#105=VECTOR('',#425,5.137);
#106=VECTOR('',#430,2.5685);
#107=VECTOR('',#445,5.6505);
#108=VECTOR('',#448,5.137);
#109=VECTOR('',#451,10.);
#110=VECTOR('',#452,10.);
#111=VECTOR('',#453,10.);
#112=VECTOR('',#454,10.);
#113=VECTOR('',#457,10.);
#114=VECTOR('',#458,10.);
#115=VECTOR('',#459,10.);
#116=VECTOR('',#462,10.);
#117=VECTOR('',#463,10.);
#118=VECTOR('',#464,10.);
#119=VECTOR('',#467,10.);
#120=VECTOR('',#468,10.);
#121=CIRCLE('',#336,3.05);
#122=CIRCLE('',#337,3.05);
#123=CIRCLE('',#339,3.05);
#124=CIRCLE('',#340,3.05);
#125=CIRCLE('',#342,3.05);
#126=CIRCLE('',#343,3.05);
#127=CIRCLE('',#345,3.05);
#128=CIRCLE('',#346,3.05);
#129=CIRCLE('',#348,5.13675);
#130=CIRCLE('',#350,5.6505);
#131=CIRCLE('',#351,5.6505);
#132=CIRCLE('',#352,5.13675);
#133=CIRCLE('',#354,5.6505);
#134=CIRCLE('',#355,5.6505);
#135=CIRCLE('',#358,5.13675);
#136=CIRCLE('',#360,5.6505);
#137=CIRCLE('',#361,5.6505);
#138=CIRCLE('',#362,5.13675);
#139=CIRCLE('',#364,5.6505);
#140=CIRCLE('',#365,5.6505);
#141=VERTEX_POINT('',#475);
#142=VERTEX_POINT('',#476);
#143=VERTEX_POINT('',#479);
#144=VERTEX_POINT('',#482);
#145=VERTEX_POINT('',#483);
#146=VERTEX_POINT('',#488);
#147=VERTEX_POINT('',#489);
#148=VERTEX_POINT('',#492);
#149=VERTEX_POINT('',#495);
#150=VERTEX_POINT('',#496);
#151=VERTEX_POINT('',#501);
#152=VERTEX_POINT('',#503);
#153=VERTEX_POINT('',#506);
#154=VERTEX_POINT('',#507);
#155=VERTEX_POINT('',#510);
#156=VERTEX_POINT('',#513);
#157=VERTEX_POINT('',#514);
#158=VERTEX_POINT('',#521);
#159=VERTEX_POINT('',#523);
#160=VERTEX_POINT('',#526);
#161=VERTEX_POINT('',#527);
#162=VERTEX_POINT('',#530);
#163=VERTEX_POINT('',#533);
#164=VERTEX_POINT('',#534);
#165=VERTEX_POINT('',#541);
#166=VERTEX_POINT('',#542);
#167=VERTEX_POINT('',#544);
#168=VERTEX_POINT('',#546);
#169=VERTEX_POINT('',#550);
#170=VERTEX_POINT('',#552);
#171=VERTEX_POINT('',#556);
#172=VERTEX_POINT('',#558);
#173=EDGE_CURVE('',#141,#142,#121,.T.);
#174=EDGE_CURVE('',#142,#141,#122,.T.);
#175=EDGE_CURVE('',#142,#143,#77,.T.);
#176=EDGE_CURVE('',#144,#145,#123,.T.);
#177=EDGE_CURVE('',#145,#144,#124,.T.);
#178=EDGE_CURVE('',#145,#142,#78,.T.);
#179=EDGE_CURVE('',#146,#147,#125,.T.);
#180=EDGE_CURVE('',#147,#146,#126,.T.);
#181=EDGE_CURVE('',#147,#148,#79,.T.);
#182=EDGE_CURVE('',#149,#150,#127,.T.);
#183=EDGE_CURVE('',#150,#149,#128,.T.);
#184=EDGE_CURVE('',#150,#147,#80,.T.);
#185=EDGE_CURVE('',#151,#151,#129,.T.);
#186=EDGE_CURVE('',#151,#152,#81,.T.);
#187=EDGE_CURVE('',#153,#154,#130,.T.);
#188=EDGE_CURVE('',#154,#153,#131,.T.);
#189=EDGE_CURVE('',#155,#155,#132,.F.);
#190=EDGE_CURVE('',#156,#157,#133,.T.);
#191=EDGE_CURVE('',#157,#156,#134,.T.);
#192=EDGE_CURVE('',#157,#154,#82,.T.);
#193=EDGE_CURVE('',#155,#151,#83,.T.);
#194=EDGE_CURVE('',#158,#158,#135,.T.);
#195=EDGE_CURVE('',#158,#159,#84,.T.);
#196=EDGE_CURVE('',#160,#161,#136,.T.);
#197=EDGE_CURVE('',#161,#160,#137,.T.);
#198=EDGE_CURVE('',#162,#162,#138,.F.);
#199=EDGE_CURVE('',#163,#164,#139,.T.);
#200=EDGE_CURVE('',#164,#163,#140,.T.);
#201=EDGE_CURVE('',#164,#161,#85,.T.);
#202=EDGE_CURVE('',#162,#158,#86,.T.);
#203=EDGE_CURVE('',#165,#166,#87,.T.);
#204=EDGE_CURVE('',#166,#167,#88,.T.);
#205=EDGE_CURVE('',#168,#167,#89,.T.);
#206=EDGE_CURVE('',#165,#168,#90,.T.);
#207=EDGE_CURVE('',#169,#165,#91,.T.);
#208=EDGE_CURVE('',#170,#168,#92,.T.);
#209=EDGE_CURVE('',#169,#170,#93,.T.);
#210=EDGE_CURVE('',#171,#169,#94,.T.);
#211=EDGE_CURVE('',#172,#170,#95,.T.);
#212=EDGE_CURVE('',#171,#172,#96,.T.);
#213=EDGE_CURVE('',#166,#171,#97,.T.);
#214=EDGE_CURVE('',#167,#172,#98,.T.);
#215=ORIENTED_EDGE('',*,*,#173,.F.);
#216=ORIENTED_EDGE('',*,*,#174,.F.);
#217=ORIENTED_EDGE('',*,*,#175,.T.);
#218=ORIENTED_EDGE('',*,*,#175,.F.);
#219=ORIENTED_EDGE('',*,*,#176,.F.);
#220=ORIENTED_EDGE('',*,*,#177,.F.);
#221=ORIENTED_EDGE('',*,*,#178,.T.);
#222=ORIENTED_EDGE('',*,*,#174,.T.);
#223=ORIENTED_EDGE('',*,*,#173,.T.);
#224=ORIENTED_EDGE('',*,*,#178,.F.);
#225=ORIENTED_EDGE('',*,*,#179,.F.);
#226=ORIENTED_EDGE('',*,*,#180,.F.);
#227=ORIENTED_EDGE('',*,*,#181,.T.);
#228=ORIENTED_EDGE('',*,*,#181,.F.);
#229=ORIENTED_EDGE('',*,*,#182,.F.);
#230=ORIENTED_EDGE('',*,*,#183,.F.);
#231=ORIENTED_EDGE('',*,*,#184,.T.);
#232=ORIENTED_EDGE('',*,*,#180,.T.);
#233=ORIENTED_EDGE('',*,*,#179,.T.);
#234=ORIENTED_EDGE('',*,*,#184,.F.);
#235=ORIENTED_EDGE('',*,*,#185,.F.);
#236=ORIENTED_EDGE('',*,*,#186,.T.);
#237=ORIENTED_EDGE('',*,*,#186,.F.);
#238=ORIENTED_EDGE('',*,*,#187,.F.);
#239=ORIENTED_EDGE('',*,*,#188,.F.);
#240=ORIENTED_EDGE('',*,*,#189,.T.);
#241=ORIENTED_EDGE('',*,*,#190,.F.);
#242=ORIENTED_EDGE('',*,*,#191,.F.);
#243=ORIENTED_EDGE('',*,*,#192,.T.);
#244=ORIENTED_EDGE('',*,*,#188,.T.);
#245=ORIENTED_EDGE('',*,*,#187,.T.);
#246=ORIENTED_EDGE('',*,*,#192,.F.);
#247=ORIENTED_EDGE('',*,*,#189,.F.);
#248=ORIENTED_EDGE('',*,*,#193,.T.);
#249=ORIENTED_EDGE('',*,*,#185,.T.);
#250=ORIENTED_EDGE('',*,*,#193,.F.);
#251=ORIENTED_EDGE('',*,*,#194,.F.);
#252=ORIENTED_EDGE('',*,*,#195,.T.);
#253=ORIENTED_EDGE('',*,*,#195,.F.);
#254=ORIENTED_EDGE('',*,*,#196,.F.);
#255=ORIENTED_EDGE('',*,*,#197,.F.);
#256=ORIENTED_EDGE('',*,*,#198,.T.);
#257=ORIENTED_EDGE('',*,*,#199,.F.);
#258=ORIENTED_EDGE('',*,*,#200,.F.);
#259=ORIENTED_EDGE('',*,*,#201,.T.);
#260=ORIENTED_EDGE('',*,*,#197,.T.);
#261=ORIENTED_EDGE('',*,*,#196,.T.);
#262=ORIENTED_EDGE('',*,*,#201,.F.);
#263=ORIENTED_EDGE('',*,*,#198,.F.);
#264=ORIENTED_EDGE('',*,*,#202,.T.);
#265=ORIENTED_EDGE('',*,*,#194,.T.);
#266=ORIENTED_EDGE('',*,*,#202,.F.);
#267=ORIENTED_EDGE('',*,*,#203,.T.);
#268=ORIENTED_EDGE('',*,*,#204,.T.);
#269=ORIENTED_EDGE('',*,*,#205,.F.);
#270=ORIENTED_EDGE('',*,*,#206,.F.);
#271=ORIENTED_EDGE('',*,*,#207,.T.);
#272=ORIENTED_EDGE('',*,*,#206,.T.);
#273=ORIENTED_EDGE('',*,*,#208,.F.);
#274=ORIENTED_EDGE('',*,*,#209,.F.);
#275=ORIENTED_EDGE('',*,*,#176,.T.);
#276=ORIENTED_EDGE('',*,*,#177,.T.);
#277=ORIENTED_EDGE('',*,*,#190,.T.);
#278=ORIENTED_EDGE('',*,*,#191,.T.);
#279=ORIENTED_EDGE('',*,*,#210,.T.);
#280=ORIENTED_EDGE('',*,*,#209,.T.);
#281=ORIENTED_EDGE('',*,*,#211,.F.);
#282=ORIENTED_EDGE('',*,*,#212,.F.);
#283=ORIENTED_EDGE('',*,*,#182,.T.);
#284=ORIENTED_EDGE('',*,*,#183,.T.);
#285=ORIENTED_EDGE('',*,*,#199,.T.);
#286=ORIENTED_EDGE('',*,*,#200,.T.);
#287=ORIENTED_EDGE('',*,*,#213,.T.);
#288=ORIENTED_EDGE('',*,*,#212,.T.);
#289=ORIENTED_EDGE('',*,*,#214,.F.);
#290=ORIENTED_EDGE('',*,*,#204,.F.);
#291=ORIENTED_EDGE('',*,*,#214,.T.);
#292=ORIENTED_EDGE('',*,*,#211,.T.);
#293=ORIENTED_EDGE('',*,*,#208,.T.);
#294=ORIENTED_EDGE('',*,*,#205,.T.);
#295=ORIENTED_EDGE('',*,*,#213,.F.);
#296=ORIENTED_EDGE('',*,*,#203,.F.);
#297=ORIENTED_EDGE('',*,*,#207,.F.);
#298=ORIENTED_EDGE('',*,*,#210,.F.);
#299=CONICAL_SURFACE('',#335,1.525,1.02974425867665);
#300=CONICAL_SURFACE('',#341,1.525,1.02974425867665);
#301=CONICAL_SURFACE('',#347,2.56843368394535,1.02974425867665);
#302=CONICAL_SURFACE('',#357,2.56843368394535,1.02974425867665);
#303=ADVANCED_FACE('',(#35),#299,.F.);
#304=ADVANCED_FACE('',(#36),#29,.F.);
#305=ADVANCED_FACE('',(#37),#300,.F.);
#306=ADVANCED_FACE('',(#38),#30,.F.);
#307=ADVANCED_FACE('',(#39),#301,.F.);
#308=ADVANCED_FACE('',(#40,#15),#21,.F.);
#309=ADVANCED_FACE('',(#41),#31,.F.);
#310=ADVANCED_FACE('',(#42),#32,.F.);
#311=ADVANCED_FACE('',(#43),#302,.F.);
#312=ADVANCED_FACE('',(#44,#16),#22,.F.);
#313=ADVANCED_FACE('',(#45),#33,.F.);
#314=ADVANCED_FACE('',(#46),#34,.F.);
#315=ADVANCED_FACE('',(#47),#23,.T.);
#316=ADVANCED_FACE('',(#48,#17,#18),#24,.T.);
#317=ADVANCED_FACE('',(#49,#19,#20),#25,.T.);
#318=ADVANCED_FACE('',(#50),#26,.T.);
#319=ADVANCED_FACE('',(#51),#27,.T.);
#320=ADVANCED_FACE('',(#52),#28,.F.);
#321=CLOSED_SHELL('',(#303,#304,#305,#306,#307,#308,#309,#310,#311,#312,
#313,#314,#315,#316,#317,#318,#319,#320));
#322=DERIVED_UNIT_ELEMENT(#324,1.);
#323=DERIVED_UNIT_ELEMENT(#571,3.);
#324=(
MASS_UNIT()
NAMED_UNIT(*)
SI_UNIT(.KILO.,.GRAM.)
);
#325=DERIVED_UNIT((#322,#323));
#326=MEASURE_REPRESENTATION_ITEM('density measure',
POSITIVE_RATIO_MEASURE(7850.),#325);
#327=PROPERTY_DEFINITION_REPRESENTATION(#332,#329);
#328=PROPERTY_DEFINITION_REPRESENTATION(#333,#330);
#329=REPRESENTATION('material name',(#331),#568);
#330=REPRESENTATION('density',(#326),#568);
#331=DESCRIPTIVE_REPRESENTATION_ITEM('Steel','Steel');
#332=PROPERTY_DEFINITION('material property','material name',#578);
#333=PROPERTY_DEFINITION('material property','density of part',#578);
#334=AXIS2_PLACEMENT_3D('placement',#473,#373,#374);
#335=AXIS2_PLACEMENT_3D('',#474,#375,#376);
#336=AXIS2_PLACEMENT_3D('',#477,#377,#378);
#337=AXIS2_PLACEMENT_3D('',#478,#379,#380);
#338=AXIS2_PLACEMENT_3D('',#481,#382,#383);
#339=AXIS2_PLACEMENT_3D('',#484,#384,#385);
#340=AXIS2_PLACEMENT_3D('',#485,#386,#387);
#341=AXIS2_PLACEMENT_3D('',#487,#389,#390);
#342=AXIS2_PLACEMENT_3D('',#490,#391,#392);
#343=AXIS2_PLACEMENT_3D('',#491,#393,#394);
#344=AXIS2_PLACEMENT_3D('',#494,#396,#397);
#345=AXIS2_PLACEMENT_3D('',#497,#398,#399);
#346=AXIS2_PLACEMENT_3D('',#498,#400,#401);
#347=AXIS2_PLACEMENT_3D('',#500,#403,#404);
#348=AXIS2_PLACEMENT_3D('',#502,#405,#406);
#349=AXIS2_PLACEMENT_3D('',#505,#408,#409);
#350=AXIS2_PLACEMENT_3D('',#508,#410,#411);
#351=AXIS2_PLACEMENT_3D('',#509,#412,#413);
#352=AXIS2_PLACEMENT_3D('',#511,#414,#415);
#353=AXIS2_PLACEMENT_3D('',#512,#416,#417);
#354=AXIS2_PLACEMENT_3D('',#515,#418,#419);
#355=AXIS2_PLACEMENT_3D('',#516,#420,#421);
#356=AXIS2_PLACEMENT_3D('',#518,#423,#424);
#357=AXIS2_PLACEMENT_3D('',#520,#426,#427);
#358=AXIS2_PLACEMENT_3D('',#522,#428,#429);
#359=AXIS2_PLACEMENT_3D('',#525,#431,#432);
#360=AXIS2_PLACEMENT_3D('',#528,#433,#434);
#361=AXIS2_PLACEMENT_3D('',#529,#435,#436);
#362=AXIS2_PLACEMENT_3D('',#531,#437,#438);
#363=AXIS2_PLACEMENT_3D('',#532,#439,#440);
#364=AXIS2_PLACEMENT_3D('',#535,#441,#442);
#365=AXIS2_PLACEMENT_3D('',#536,#443,#444);
#366=AXIS2_PLACEMENT_3D('',#538,#446,#447);
#367=AXIS2_PLACEMENT_3D('',#540,#449,#450);
#368=AXIS2_PLACEMENT_3D('',#549,#455,#456);
#369=AXIS2_PLACEMENT_3D('',#555,#460,#461);
#370=AXIS2_PLACEMENT_3D('',#561,#465,#466);
#371=AXIS2_PLACEMENT_3D('',#564,#469,#470);
#372=AXIS2_PLACEMENT_3D('',#565,#471,#472);
#373=DIRECTION('axis',(0.,0.,1.));
#374=DIRECTION('refdir',(1.,0.,0.));
#375=DIRECTION('center_axis',(0.5,0.866025403784439,0.));
#376=DIRECTION('ref_axis',(0.,0.,1.));
#377=DIRECTION('center_axis',(-0.5,-0.866025403784439,0.));
#378=DIRECTION('ref_axis',(0.,0.,1.));
#379=DIRECTION('center_axis',(-0.5,-0.866025403784439,0.));
#380=DIRECTION('ref_axis',(0.,0.,1.));
#381=DIRECTION('',(-0.257519037455027,-0.44603605678834,0.857167300702112));
#382=DIRECTION('center_axis',(-0.5,-0.866025403784439,0.));
#383=DIRECTION('ref_axis',(0.,0.,1.));
#384=DIRECTION('center_axis',(-0.5,-0.866025403784439,0.));
#385=DIRECTION('ref_axis',(0.,0.,1.));
#386=DIRECTION('center_axis',(-0.5,-0.866025403784439,0.));
#387=DIRECTION('ref_axis',(0.,0.,1.));
#388=DIRECTION('',(-0.5,-0.866025403784439,0.));
#389=DIRECTION('center_axis',(1.,-1.61486985400023E-16,0.));
#390=DIRECTION('ref_axis',(1.61486985400023E-16,1.,0.));
#391=DIRECTION('center_axis',(-1.,1.61486985400023E-16,0.));
#392=DIRECTION('ref_axis',(1.61486985400023E-16,1.,0.));
#393=DIRECTION('center_axis',(-1.,1.61486985400023E-16,0.));
#394=DIRECTION('ref_axis',(1.61486985400023E-16,1.,0.));
#395=DIRECTION('',(-0.515038074910054,0.857167300702112,-1.04972719113862E-16));
#396=DIRECTION('center_axis',(-1.,1.61486985400023E-16,0.));
#397=DIRECTION('ref_axis',(1.61486985400023E-16,1.,0.));
#398=DIRECTION('center_axis',(-1.,1.61486985400023E-16,0.));
#399=DIRECTION('ref_axis',(1.61486985400023E-16,1.,0.));
#400=DIRECTION('center_axis',(-1.,1.61486985400023E-16,0.));
#401=DIRECTION('ref_axis',(1.61486985400023E-16,1.,0.));
#402=DIRECTION('',(-1.,1.61486985400023E-16,0.));
#403=DIRECTION('center_axis',(0.5,0.866025403784439,0.));
#404=DIRECTION('ref_axis',(0.,0.,1.));
#405=DIRECTION('center_axis',(-0.5,-0.866025403784439,0.));
#406=DIRECTION('ref_axis',(0.,0.,1.));
#407=DIRECTION('',(-0.257519037455027,-0.44603605678834,0.857167300702112));
#408=DIRECTION('center_axis',(-0.5,-0.866025403784439,0.));
#409=DIRECTION('ref_axis',(0.,0.,1.));
#410=DIRECTION('center_axis',(-0.5,-0.866025403784439,0.));
#411=DIRECTION('ref_axis',(0.,0.,1.));
#412=DIRECTION('center_axis',(-0.5,-0.866025403784439,0.));
#413=DIRECTION('ref_axis',(0.,0.,1.));
#414=DIRECTION('center_axis',(0.5,0.866025403784439,0.));
#415=DIRECTION('ref_axis',(0.,0.,1.));
#416=DIRECTION('center_axis',(-0.5,-0.866025403784439,0.));
#417=DIRECTION('ref_axis',(0.,0.,1.));
#418=DIRECTION('center_axis',(-0.5,-0.866025403784439,0.));
#419=DIRECTION('ref_axis',(0.,0.,1.));
#420=DIRECTION('center_axis',(-0.5,-0.866025403784439,0.));
#421=DIRECTION('ref_axis',(0.,0.,1.));
#422=DIRECTION('',(-0.5,-0.866025403784439,0.));
#423=DIRECTION('center_axis',(-0.5,-0.866025403784439,0.));
#424=DIRECTION('ref_axis',(0.,0.,1.));
#425=DIRECTION('',(-0.5,-0.866025403784439,0.));
#426=DIRECTION('center_axis',(1.,0.,0.));
#427=DIRECTION('ref_axis',(0.,1.,0.));
#428=DIRECTION('center_axis',(-1.,0.,0.));
#429=DIRECTION('ref_axis',(0.,1.,0.));
#430=DIRECTION('',(-0.515038074910054,0.857167300702112,-1.04972719113862E-16));
#431=DIRECTION('center_axis',(-1.,0.,0.));
#432=DIRECTION('ref_axis',(0.,1.,0.));
#433=DIRECTION('center_axis',(-1.,0.,0.));
#434=DIRECTION('ref_axis',(0.,1.,0.));
#435=DIRECTION('center_axis',(-1.,0.,0.));
#436=DIRECTION('ref_axis',(0.,1.,0.));
#437=DIRECTION('center_axis',(1.,0.,0.));
#438=DIRECTION('ref_axis',(0.,1.,0.));
#439=DIRECTION('center_axis',(-1.,0.,0.));
#440=DIRECTION('ref_axis',(0.,1.,0.));
#441=DIRECTION('center_axis',(-1.,1.61486985400023E-16,0.));
#442=DIRECTION('ref_axis',(0.,1.,0.));
#443=DIRECTION('center_axis',(-1.,1.61486985400023E-16,0.));
#444=DIRECTION('ref_axis',(0.,1.,0.));
#445=DIRECTION('',(-1.,0.,0.));
#446=DIRECTION('center_axis',(-1.,0.,0.));
#447=DIRECTION('ref_axis',(0.,1.,0.));
#448=DIRECTION('',(-1.,0.,0.));
#449=DIRECTION('center_axis',(-0.866025403784439,0.5,0.));
#450=DIRECTION('ref_axis',(-0.5,-0.866025403784439,0.));
#451=DIRECTION('',(-0.5,-0.866025403784439,0.));
#452=DIRECTION('',(0.,0.,1.));
#453=DIRECTION('',(-0.5,-0.866025403784439,0.));
#454=DIRECTION('',(0.,0.,1.));
#455=DIRECTION('center_axis',(0.5,0.866025403784439,0.));
#456=DIRECTION('ref_axis',(-0.866025403784439,0.5,0.));
#457=DIRECTION('',(-0.866025403784439,0.5,0.));
#458=DIRECTION('',(-0.866025403784439,0.5,0.));
#459=DIRECTION('',(0.,0.,1.));
#460=DIRECTION('center_axis',(1.,-1.61486985400023E-16,0.));
#461=DIRECTION('ref_axis',(1.61486985400023E-16,1.,0.));
#462=DIRECTION('',(1.61486985400023E-16,1.,0.));
#463=DIRECTION('',(1.61486985400023E-16,1.,0.));
#464=DIRECTION('',(0.,0.,1.));
#465=DIRECTION('center_axis',(1.16543193114155E-16,-1.,0.));
#466=DIRECTION('ref_axis',(1.,1.16543193114155E-16,0.));
#467=DIRECTION('',(1.,1.16543193114155E-16,0.));
#468=DIRECTION('',(1.,1.16543193114155E-16,0.));
#469=DIRECTION('center_axis',(0.,0.,1.));
#470=DIRECTION('ref_axis',(1.,0.,0.));
#471=DIRECTION('center_axis',(0.,0.,1.));
#472=DIRECTION('ref_axis',(1.,0.,0.));
#473=CARTESIAN_POINT('',(0.,0.,0.));
#474=CARTESIAN_POINT('Origin',(9.32868555236331,57.7602977229708,36.));
#475=CARTESIAN_POINT('',(9.78684177437182,58.5538475772934,39.05));
#476=CARTESIAN_POINT('',(9.78684177437182,58.5538475772934,32.95));
#477=CARTESIAN_POINT('Origin',(9.78684177437182,58.5538475772934,36.));
#478=CARTESIAN_POINT('Origin',(9.78684177437182,58.5538475772934,36.));
#479=CARTESIAN_POINT('',(8.87052933035479,56.9667478686482,36.));
#480=CARTESIAN_POINT('',(9.32868555236331,57.7602977229708,34.475));
#481=CARTESIAN_POINT('Origin',(11.2868417743718,61.1519237886467,36.));
#482=CARTESIAN_POINT('',(12.7868417743718,63.75,39.05));
#483=CARTESIAN_POINT('',(12.7868417743718,63.75,32.95));
#484=CARTESIAN_POINT('Origin',(12.7868417743718,63.75,36.));
#485=CARTESIAN_POINT('Origin',(12.7868417743718,63.75,36.));
#486=CARTESIAN_POINT('',(11.2868417743718,61.1519237886467,32.95));
#487=CARTESIAN_POINT('Origin',(29.6862279344268,22.3,36.));
#488=CARTESIAN_POINT('',(30.6025403784438,25.35,36.));
#489=CARTESIAN_POINT('',(30.6025403784438,19.25,36.));
#490=CARTESIAN_POINT('Origin',(30.6025403784438,22.3,36.));
#491=CARTESIAN_POINT('Origin',(30.6025403784438,22.3,36.));
#492=CARTESIAN_POINT('',(28.7699154904098,22.3,36.));
#493=CARTESIAN_POINT('',(29.6862279344268,20.775,36.));
#494=CARTESIAN_POINT('Origin',(33.6025403784438,22.3,36.));
#495=CARTESIAN_POINT('',(36.6025403784438,25.35,36.));
#496=CARTESIAN_POINT('',(36.6025403784439,19.25,36.));
#497=CARTESIAN_POINT('Origin',(36.6025403784439,22.3,36.));
#498=CARTESIAN_POINT('Origin',(36.6025403784439,22.3,36.));
#499=CARTESIAN_POINT('',(33.6025403784438,19.25,36.));
#500=CARTESIAN_POINT('Origin',(-0.484758291389771,40.7629143883664,25.));
#501=CARTESIAN_POINT('',(0.286841774371818,42.099364905389,19.86325));
#502=CARTESIAN_POINT('Origin',(0.286841774371818,42.099364905389,25.));
#503=CARTESIAN_POINT('',(-1.25639361802309,39.4264027977225,25.));
#504=CARTESIAN_POINT('',(-0.484758291389771,40.7629143883664,22.4315663160547));
#505=CARTESIAN_POINT('Origin',(12.2868417743718,62.8839745962155,25.));
#506=CARTESIAN_POINT('',(12.2868417743718,62.8839745962155,30.6505));
#507=CARTESIAN_POINT('',(12.2868417743718,62.8839745962155,19.3495));
#508=CARTESIAN_POINT('Origin',(12.2868417743718,62.8839745962155,25.));
#509=CARTESIAN_POINT('Origin',(12.2868417743718,62.8839745962155,25.));
#510=CARTESIAN_POINT('',(12.2868417743718,62.8839745962155,19.86325));
#511=CARTESIAN_POINT('Origin',(12.2868417743718,62.8839745962155,25.));
#512=CARTESIAN_POINT('Origin',(12.5368417743718,63.3169872981078,25.));
#513=CARTESIAN_POINT('',(12.7868417743718,63.75,30.6505));
#514=CARTESIAN_POINT('',(12.7868417743718,63.75,19.3495));
#515=CARTESIAN_POINT('Origin',(12.7868417743718,63.75,25.));
#516=CARTESIAN_POINT('Origin',(12.7868417743718,63.75,25.));
#517=CARTESIAN_POINT('',(12.5368417743718,63.3169872981078,19.3495));
#518=CARTESIAN_POINT('Origin',(6.53684177437182,52.9246824526945,25.));
#519=CARTESIAN_POINT('',(6.53684177437182,52.9246824526945,19.86325));
#520=CARTESIAN_POINT('Origin',(10.0593402469207,22.3,25.));
#521=CARTESIAN_POINT('',(11.6025403784439,17.16325,25.));
#522=CARTESIAN_POINT('Origin',(11.6025403784439,22.3,25.));
#523=CARTESIAN_POINT('',(8.51606959365403,22.3,25.));
#524=CARTESIAN_POINT('',(10.0593402469207,19.7315663160547,25.));
#525=CARTESIAN_POINT('Origin',(35.6025403784439,22.3,25.));
#526=CARTESIAN_POINT('',(35.6025403784439,27.9505,25.));
#527=CARTESIAN_POINT('',(35.6025403784439,16.6495,25.));
#528=CARTESIAN_POINT('Origin',(35.6025403784439,22.3,25.));
#529=CARTESIAN_POINT('Origin',(35.6025403784439,22.3,25.));
#530=CARTESIAN_POINT('',(35.6025403784439,17.16325,25.));
#531=CARTESIAN_POINT('Origin',(35.6025403784439,22.3,25.));
#532=CARTESIAN_POINT('Origin',(36.1025403784439,22.3,25.));
#533=CARTESIAN_POINT('',(36.6025403784439,27.9505,25.));
#534=CARTESIAN_POINT('',(36.6025403784438,16.6495,25.));
#535=CARTESIAN_POINT('Origin',(36.6025403784438,22.3,25.));
#536=CARTESIAN_POINT('Origin',(36.6025403784438,22.3,25.));
#537=CARTESIAN_POINT('',(36.1025403784439,16.6495,25.));
#538=CARTESIAN_POINT('Origin',(24.1025403784439,22.3,25.));
#539=CARTESIAN_POINT('',(24.1025403784439,17.16325,25.));
#540=CARTESIAN_POINT('Origin',(-11.0288568297003,77.5,0.));
#541=CARTESIAN_POINT('',(-11.0288568297003,77.5,0.));
#542=CARTESIAN_POINT('',(-58.6602540378444,-5.00000000000001,0.));
#543=CARTESIAN_POINT('',(-11.0288568297003,77.5,0.));
#544=CARTESIAN_POINT('',(-58.6602540378444,-5.00000000000001,50.));
#545=CARTESIAN_POINT('',(-58.6602540378444,-5.00000000000001,0.));
#546=CARTESIAN_POINT('',(-11.0288568297003,77.5,50.));
#547=CARTESIAN_POINT('',(-11.0288568297003,77.5,50.));
#548=CARTESIAN_POINT('',(-11.0288568297003,77.5,0.));
#549=CARTESIAN_POINT('Origin',(36.6025403784439,50.,0.));
#550=CARTESIAN_POINT('',(36.6025403784439,50.,0.));
#551=CARTESIAN_POINT('',(36.6025403784439,50.,0.));
#552=CARTESIAN_POINT('',(36.6025403784439,50.,50.));
#553=CARTESIAN_POINT('',(36.6025403784439,50.,50.));
#554=CARTESIAN_POINT('',(36.6025403784439,50.,0.));
#555=CARTESIAN_POINT('Origin',(36.6025403784438,-5.,0.));
#556=CARTESIAN_POINT('',(36.6025403784439,-5.,0.));
#557=CARTESIAN_POINT('',(36.6025403784438,-5.,0.));
#558=CARTESIAN_POINT('',(36.6025403784439,-5.,50.));
#559=CARTESIAN_POINT('',(36.6025403784438,-5.,50.));
#560=CARTESIAN_POINT('',(36.6025403784439,-5.,0.));
#561=CARTESIAN_POINT('Origin',(-58.6602540378444,-5.00000000000001,0.));
#562=CARTESIAN_POINT('',(-58.6602540378444,-5.00000000000001,0.));
#563=CARTESIAN_POINT('',(-58.6602540378444,-5.00000000000001,50.));
#564=CARTESIAN_POINT('Origin',(-11.0288568297003,36.25,50.));
#565=CARTESIAN_POINT('Origin',(-11.0288568297003,36.25,0.));
#566=UNCERTAINTY_MEASURE_WITH_UNIT(LENGTH_MEASURE(0.01),#570,
'DISTANCE_ACCURACY_VALUE',
'Maximum model space distance between geometric entities at asserted c
onnectivities');
#567=UNCERTAINTY_MEASURE_WITH_UNIT(LENGTH_MEASURE(0.01),#570,
'DISTANCE_ACCURACY_VALUE',
'Maximum model space distance between geometric entities at asserted c
onnectivities');
#568=(
GEOMETRIC_REPRESENTATION_CONTEXT(3)
GLOBAL_UNCERTAINTY_ASSIGNED_CONTEXT((#566))
GLOBAL_UNIT_ASSIGNED_CONTEXT((#570,#572,#573))
REPRESENTATION_CONTEXT('','3D')
);
#569=(
GEOMETRIC_REPRESENTATION_CONTEXT(3)
GLOBAL_UNCERTAINTY_ASSIGNED_CONTEXT((#567))
GLOBAL_UNIT_ASSIGNED_CONTEXT((#570,#572,#573))
REPRESENTATION_CONTEXT('','3D')
);
#570=(
LENGTH_UNIT()
NAMED_UNIT(*)
SI_UNIT(.MILLI.,.METRE.)
);
#571=(
LENGTH_UNIT()
NAMED_UNIT(*)
SI_UNIT($,.METRE.)
);
#572=(
NAMED_UNIT(*)
PLANE_ANGLE_UNIT()
SI_UNIT($,.RADIAN.)
);
#573=(
NAMED_UNIT(*)
SI_UNIT($,.STERADIAN.)
SOLID_ANGLE_UNIT()
);
#574=SHAPE_DEFINITION_REPRESENTATION(#575,#576);
#575=PRODUCT_DEFINITION_SHAPE('',$,#578);
#576=SHAPE_REPRESENTATION('',(#334),#568);
#577=PRODUCT_DEFINITION_CONTEXT('part definition',#582,'design');
#578=PRODUCT_DEFINITION('ANGLE TRIANGLE 60DEGRES',
'ANGLE TRIANGLE 60DEGRES v6',#579,#577);
#579=PRODUCT_DEFINITION_FORMATION('',$,#584);
#580=PRODUCT_RELATED_PRODUCT_CATEGORY('ANGLE TRIANGLE 60DEGRES v6',
'ANGLE TRIANGLE 60DEGRES v6',(#584));
#581=APPLICATION_PROTOCOL_DEFINITION('international standard',
'automotive_design',2009,#582);
#582=APPLICATION_CONTEXT(
'Core Data for Automotive Mechanical Design Process');
#583=PRODUCT_CONTEXT('part definition',#582,'mechanical');
#584=PRODUCT('ANGLE TRIANGLE 60DEGRES','ANGLE TRIANGLE 60DEGRES v6',$,(#583));
#585=PRESENTATION_STYLE_ASSIGNMENT((#586));
#586=SURFACE_STYLE_USAGE(.BOTH.,#587);
#587=SURFACE_SIDE_STYLE('',(#588));
#588=SURFACE_STYLE_FILL_AREA(#589);
#589=FILL_AREA_STYLE('Steel - Satin',(#590));
#590=FILL_AREA_STYLE_COLOUR('Steel - Satin',#591);
#591=COLOUR_RGB('Steel - Satin',0.627450980392157,0.627450980392157,0.627450980392157);
ENDSEC;
END-ISO-10303-21;
