ISO-10303-21;
HEADER;
FILE_DESCRIPTION(('FreeCAD Model'),'2;1');
FILE_NAME(
  '/home/ludovic/Personnel/Travaux-maison/fenetres/gabarit_percage.step'
  ,'2020-05-01T12:55:45',('LEAU-MERCIER LUDOVIC'),('LPSC - CNRS'),
  'Open CASCADE STEP processor 7.4','FreeCAD','Unknown');
FILE_SCHEMA(('AUTOMOTIVE_DESIGN { 1 0 10303 214 1 1 1 1 }'));
ENDSEC;
DATA;
#1 = APPLICATION_PROTOCOL_DEFINITION('international standard',
  'automotive_design',2000,#2);
#2 = APPLICATION_CONTEXT(
  'core data for automotive mechanical design processes');
#3 = SHAPE_DEFINITION_REPRESENTATION(#4,#10);
#4 = PRODUCT_DEFINITION_SHAPE('','',#5);
#5 = PRODUCT_DEFINITION('design','',#6,#9);
#6 = PRODUCT_DEFINITION_FORMATION('','',#7);
#7 = PRODUCT('Cut001','Cut001','',(#8));
#8 = PRODUCT_CONTEXT('',#2,'mechanical');
#9 = PRODUCT_DEFINITION_CONTEXT('part definition',#2,'design');
#10 = ADVANCED_BREP_SHAPE_REPRESENTATION('',(#11,#15),#633);
#11 = AXIS2_PLACEMENT_3D('',#12,#13,#14);
#12 = CARTESIAN_POINT('',(0.,0.,0.));
#13 = DIRECTION('',(0.,0.,1.));
#14 = DIRECTION('',(1.,0.,-0.));
#15 = MANIFOLD_SOLID_BREP('',#16);
#16 = CLOSED_SHELL('',(#17,#123,#154,#194,#234,#273,#298,#323,#348,#373,
    #398,#423,#440,#491,#525,#542,#559,#579,#599,#616));
#17 = ADVANCED_FACE('',(#18,#52,#63,#74,#85,#96,#107),#118,.T.);
#18 = FACE_BOUND('',#19,.T.);
#19 = EDGE_LOOP('',(#20,#30,#38,#46));
#20 = ORIENTED_EDGE('',*,*,#21,.T.);
#21 = EDGE_CURVE('',#22,#24,#26,.T.);
#22 = VERTEX_POINT('',#23);
#23 = CARTESIAN_POINT('',(0.,0.,-90.));
#24 = VERTEX_POINT('',#25);
#25 = CARTESIAN_POINT('',(0.,0.,90.));
#26 = LINE('',#27,#28);
#27 = CARTESIAN_POINT('',(0.,0.,-90.));
#28 = VECTOR('',#29,1.);
#29 = DIRECTION('',(0.,0.,1.));
#30 = ORIENTED_EDGE('',*,*,#31,.T.);
#31 = EDGE_CURVE('',#24,#32,#34,.T.);
#32 = VERTEX_POINT('',#33);
#33 = CARTESIAN_POINT('',(30.,0.,90.));
#34 = LINE('',#35,#36);
#35 = CARTESIAN_POINT('',(0.,0.,90.));
#36 = VECTOR('',#37,1.);
#37 = DIRECTION('',(1.,0.,0.));
#38 = ORIENTED_EDGE('',*,*,#39,.F.);
#39 = EDGE_CURVE('',#40,#32,#42,.T.);
#40 = VERTEX_POINT('',#41);
#41 = CARTESIAN_POINT('',(30.,0.,-90.));
#42 = LINE('',#43,#44);
#43 = CARTESIAN_POINT('',(30.,0.,-90.));
#44 = VECTOR('',#45,1.);
#45 = DIRECTION('',(0.,0.,1.));
#46 = ORIENTED_EDGE('',*,*,#47,.F.);
#47 = EDGE_CURVE('',#22,#40,#48,.T.);
#48 = LINE('',#49,#50);
#49 = CARTESIAN_POINT('',(0.,0.,-90.));
#50 = VECTOR('',#51,1.);
#51 = DIRECTION('',(1.,0.,0.));
#52 = FACE_BOUND('',#53,.T.);
#53 = EDGE_LOOP('',(#54));
#54 = ORIENTED_EDGE('',*,*,#55,.F.);
#55 = EDGE_CURVE('',#56,#56,#58,.T.);
#56 = VERTEX_POINT('',#57);
#57 = CARTESIAN_POINT('',(14.25,0.,66.5));
#58 = CIRCLE('',#59,2.75);
#59 = AXIS2_PLACEMENT_3D('',#60,#61,#62);
#60 = CARTESIAN_POINT('',(17.,0.,66.5));
#61 = DIRECTION('',(0.,1.,-2.22044604925E-16));
#62 = DIRECTION('',(-1.,0.,0.));
#63 = FACE_BOUND('',#64,.T.);
#64 = EDGE_LOOP('',(#65));
#65 = ORIENTED_EDGE('',*,*,#66,.F.);
#66 = EDGE_CURVE('',#67,#67,#69,.T.);
#67 = VERTEX_POINT('',#68);
#68 = CARTESIAN_POINT('',(13.75,0.,47.5));
#69 = CIRCLE('',#70,3.25);
#70 = AXIS2_PLACEMENT_3D('',#71,#72,#73);
#71 = CARTESIAN_POINT('',(17.,0.,47.5));
#72 = DIRECTION('',(0.,1.,-2.22044604925E-16));
#73 = DIRECTION('',(-1.,0.,0.));
#74 = FACE_BOUND('',#75,.T.);
#75 = EDGE_LOOP('',(#76));
#76 = ORIENTED_EDGE('',*,*,#77,.F.);
#77 = EDGE_CURVE('',#78,#78,#80,.T.);
#78 = VERTEX_POINT('',#79);
#79 = CARTESIAN_POINT('',(13.75,0.,28.5));
#80 = CIRCLE('',#81,3.25);
#81 = AXIS2_PLACEMENT_3D('',#82,#83,#84);
#82 = CARTESIAN_POINT('',(17.,0.,28.5));
#83 = DIRECTION('',(0.,1.,-2.22044604925E-16));
#84 = DIRECTION('',(-1.,0.,0.));
#85 = FACE_BOUND('',#86,.T.);
#86 = EDGE_LOOP('',(#87));
#87 = ORIENTED_EDGE('',*,*,#88,.F.);
#88 = EDGE_CURVE('',#89,#89,#91,.T.);
#89 = VERTEX_POINT('',#90);
#90 = CARTESIAN_POINT('',(13.75,0.,-28.5));
#91 = CIRCLE('',#92,3.25);
#92 = AXIS2_PLACEMENT_3D('',#93,#94,#95);
#93 = CARTESIAN_POINT('',(17.,0.,-28.5));
#94 = DIRECTION('',(0.,1.,-2.22044604925E-16));
#95 = DIRECTION('',(-1.,0.,0.));
#96 = FACE_BOUND('',#97,.T.);
#97 = EDGE_LOOP('',(#98));
#98 = ORIENTED_EDGE('',*,*,#99,.F.);
#99 = EDGE_CURVE('',#100,#100,#102,.T.);
#100 = VERTEX_POINT('',#101);
#101 = CARTESIAN_POINT('',(13.75,0.,-47.5));
#102 = CIRCLE('',#103,3.25);
#103 = AXIS2_PLACEMENT_3D('',#104,#105,#106);
#104 = CARTESIAN_POINT('',(17.,0.,-47.5));
#105 = DIRECTION('',(0.,1.,-2.22044604925E-16));
#106 = DIRECTION('',(-1.,0.,0.));
#107 = FACE_BOUND('',#108,.T.);
#108 = EDGE_LOOP('',(#109));
#109 = ORIENTED_EDGE('',*,*,#110,.F.);
#110 = EDGE_CURVE('',#111,#111,#113,.T.);
#111 = VERTEX_POINT('',#112);
#112 = CARTESIAN_POINT('',(14.25,0.,-66.5));
#113 = CIRCLE('',#114,2.75);
#114 = AXIS2_PLACEMENT_3D('',#115,#116,#117);
#115 = CARTESIAN_POINT('',(17.,0.,-66.5));
#116 = DIRECTION('',(0.,1.,-2.22044604925E-16));
#117 = DIRECTION('',(-1.,0.,0.));
#118 = PLANE('',#119);
#119 = AXIS2_PLACEMENT_3D('',#120,#121,#122);
#120 = CARTESIAN_POINT('',(0.,0.,-90.));
#121 = DIRECTION('',(0.,1.,0.));
#122 = DIRECTION('',(1.,0.,0.));
#123 = ADVANCED_FACE('',(#124),#149,.T.);
#124 = FACE_BOUND('',#125,.T.);
#125 = EDGE_LOOP('',(#126,#136,#142,#143));
#126 = ORIENTED_EDGE('',*,*,#127,.T.);
#127 = EDGE_CURVE('',#128,#130,#132,.T.);
#128 = VERTEX_POINT('',#129);
#129 = CARTESIAN_POINT('',(0.,5.,-90.));
#130 = VERTEX_POINT('',#131);
#131 = CARTESIAN_POINT('',(0.,5.,90.));
#132 = LINE('',#133,#134);
#133 = CARTESIAN_POINT('',(0.,5.,-90.));
#134 = VECTOR('',#135,1.);
#135 = DIRECTION('',(0.,0.,1.));
#136 = ORIENTED_EDGE('',*,*,#137,.T.);
#137 = EDGE_CURVE('',#130,#24,#138,.T.);
#138 = LINE('',#139,#140);
#139 = CARTESIAN_POINT('',(0.,5.,90.));
#140 = VECTOR('',#141,1.);
#141 = DIRECTION('',(0.,-1.,0.));
#142 = ORIENTED_EDGE('',*,*,#21,.F.);
#143 = ORIENTED_EDGE('',*,*,#144,.F.);
#144 = EDGE_CURVE('',#128,#22,#145,.T.);
#145 = LINE('',#146,#147);
#146 = CARTESIAN_POINT('',(0.,5.,-90.));
#147 = VECTOR('',#148,1.);
#148 = DIRECTION('',(0.,-1.,0.));
#149 = PLANE('',#150);
#150 = AXIS2_PLACEMENT_3D('',#151,#152,#153);
#151 = CARTESIAN_POINT('',(0.,5.,-90.));
#152 = DIRECTION('',(1.,0.,0.));
#153 = DIRECTION('',(0.,-1.,0.));
#154 = ADVANCED_FACE('',(#155),#189,.T.);
#155 = FACE_BOUND('',#156,.T.);
#156 = EDGE_LOOP('',(#157,#158,#166,#174,#182,#188));
#157 = ORIENTED_EDGE('',*,*,#47,.T.);
#158 = ORIENTED_EDGE('',*,*,#159,.T.);
#159 = EDGE_CURVE('',#40,#160,#162,.T.);
#160 = VERTEX_POINT('',#161);
#161 = CARTESIAN_POINT('',(30.,-30.,-90.));
#162 = LINE('',#163,#164);
#163 = CARTESIAN_POINT('',(30.,0.,-90.));
#164 = VECTOR('',#165,1.);
#165 = DIRECTION('',(0.,-1.,0.));
#166 = ORIENTED_EDGE('',*,*,#167,.T.);
#167 = EDGE_CURVE('',#160,#168,#170,.T.);
#168 = VERTEX_POINT('',#169);
#169 = CARTESIAN_POINT('',(-5.,-30.,-90.));
#170 = LINE('',#171,#172);
#171 = CARTESIAN_POINT('',(30.,-30.,-90.));
#172 = VECTOR('',#173,1.);
#173 = DIRECTION('',(-1.,0.,0.));
#174 = ORIENTED_EDGE('',*,*,#175,.T.);
#175 = EDGE_CURVE('',#168,#176,#178,.T.);
#176 = VERTEX_POINT('',#177);
#177 = CARTESIAN_POINT('',(-5.,5.,-90.));
#178 = LINE('',#179,#180);
#179 = CARTESIAN_POINT('',(-5.,-30.,-90.));
#180 = VECTOR('',#181,1.);
#181 = DIRECTION('',(0.,1.,0.));
#182 = ORIENTED_EDGE('',*,*,#183,.T.);
#183 = EDGE_CURVE('',#176,#128,#184,.T.);
#184 = LINE('',#185,#186);
#185 = CARTESIAN_POINT('',(-5.,5.,-90.));
#186 = VECTOR('',#187,1.);
#187 = DIRECTION('',(1.,0.,0.));
#188 = ORIENTED_EDGE('',*,*,#144,.T.);
#189 = PLANE('',#190);
#190 = AXIS2_PLACEMENT_3D('',#191,#192,#193);
#191 = CARTESIAN_POINT('',(11.428571428571,-13.57142857142,-90.));
#192 = DIRECTION('',(-0.,-0.,-1.));
#193 = DIRECTION('',(-1.,0.,0.));
#194 = ADVANCED_FACE('',(#195),#229,.F.);
#195 = FACE_BOUND('',#196,.F.);
#196 = EDGE_LOOP('',(#197,#198,#206,#214,#222,#228));
#197 = ORIENTED_EDGE('',*,*,#31,.T.);
#198 = ORIENTED_EDGE('',*,*,#199,.T.);
#199 = EDGE_CURVE('',#32,#200,#202,.T.);
#200 = VERTEX_POINT('',#201);
#201 = CARTESIAN_POINT('',(30.,-30.,90.));
#202 = LINE('',#203,#204);
#203 = CARTESIAN_POINT('',(30.,0.,90.));
#204 = VECTOR('',#205,1.);
#205 = DIRECTION('',(0.,-1.,0.));
#206 = ORIENTED_EDGE('',*,*,#207,.T.);
#207 = EDGE_CURVE('',#200,#208,#210,.T.);
#208 = VERTEX_POINT('',#209);
#209 = CARTESIAN_POINT('',(-5.,-30.,90.));
#210 = LINE('',#211,#212);
#211 = CARTESIAN_POINT('',(30.,-30.,90.));
#212 = VECTOR('',#213,1.);
#213 = DIRECTION('',(-1.,0.,0.));
#214 = ORIENTED_EDGE('',*,*,#215,.T.);
#215 = EDGE_CURVE('',#208,#216,#218,.T.);
#216 = VERTEX_POINT('',#217);
#217 = CARTESIAN_POINT('',(-5.,5.,90.));
#218 = LINE('',#219,#220);
#219 = CARTESIAN_POINT('',(-5.,-30.,90.));
#220 = VECTOR('',#221,1.);
#221 = DIRECTION('',(0.,1.,0.));
#222 = ORIENTED_EDGE('',*,*,#223,.T.);
#223 = EDGE_CURVE('',#216,#130,#224,.T.);
#224 = LINE('',#225,#226);
#225 = CARTESIAN_POINT('',(-5.,5.,90.));
#226 = VECTOR('',#227,1.);
#227 = DIRECTION('',(1.,0.,0.));
#228 = ORIENTED_EDGE('',*,*,#137,.T.);
#229 = PLANE('',#230);
#230 = AXIS2_PLACEMENT_3D('',#231,#232,#233);
#231 = CARTESIAN_POINT('',(11.428571428571,-13.57142857142,90.));
#232 = DIRECTION('',(-0.,-0.,-1.));
#233 = DIRECTION('',(-1.,0.,0.));
#234 = ADVANCED_FACE('',(#235,#246,#257),#268,.T.);
#235 = FACE_BOUND('',#236,.T.);
#236 = EDGE_LOOP('',(#237,#238,#239,#245));
#237 = ORIENTED_EDGE('',*,*,#39,.T.);
#238 = ORIENTED_EDGE('',*,*,#199,.T.);
#239 = ORIENTED_EDGE('',*,*,#240,.F.);
#240 = EDGE_CURVE('',#160,#200,#241,.T.);
#241 = LINE('',#242,#243);
#242 = CARTESIAN_POINT('',(30.,-30.,-90.));
#243 = VECTOR('',#244,1.);
#244 = DIRECTION('',(0.,0.,1.));
#245 = ORIENTED_EDGE('',*,*,#159,.F.);
#246 = FACE_BOUND('',#247,.T.);
#247 = EDGE_LOOP('',(#248));
#248 = ORIENTED_EDGE('',*,*,#249,.F.);
#249 = EDGE_CURVE('',#250,#250,#252,.T.);
#250 = VERTEX_POINT('',#251);
#251 = CARTESIAN_POINT('',(30.,-8.062103223407,6.25));
#252 = ELLIPSE('',#253,3.262414472016,3.25);
#253 = AXIS2_PLACEMENT_3D('',#254,#255,#256);
#254 = CARTESIAN_POINT('',(30.,-8.062103223407,9.5));
#255 = DIRECTION('',(1.,0.,0.));
#256 = DIRECTION('',(0.,-1.,2.531042553935E-15));
#257 = FACE_BOUND('',#258,.T.);
#258 = EDGE_LOOP('',(#259));
#259 = ORIENTED_EDGE('',*,*,#260,.F.);
#260 = EDGE_CURVE('',#261,#261,#263,.T.);
#261 = VERTEX_POINT('',#262);
#262 = CARTESIAN_POINT('',(30.,-8.062103223407,-12.75143));
#263 = ELLIPSE('',#264,3.262414472016,3.25);
#264 = AXIS2_PLACEMENT_3D('',#265,#266,#267);
#265 = CARTESIAN_POINT('',(30.,-8.062103223407,-9.50143));
#266 = DIRECTION('',(1.,0.,0.));
#267 = DIRECTION('',(0.,-1.,2.531042553935E-15));
#268 = PLANE('',#269);
#269 = AXIS2_PLACEMENT_3D('',#270,#271,#272);
#270 = CARTESIAN_POINT('',(30.,0.,-90.));
#271 = DIRECTION('',(1.,0.,0.));
#272 = DIRECTION('',(0.,-1.,0.));
#273 = ADVANCED_FACE('',(#274),#293,.F.);
#274 = FACE_BOUND('',#275,.T.);
#275 = EDGE_LOOP('',(#276,#284,#291,#292));
#276 = ORIENTED_EDGE('',*,*,#277,.F.);
#277 = EDGE_CURVE('',#278,#56,#280,.T.);
#278 = VERTEX_POINT('',#279);
#279 = CARTESIAN_POINT('',(14.25,-20.,66.5));
#280 = LINE('',#281,#282);
#281 = CARTESIAN_POINT('',(14.25,-20.,66.5));
#282 = VECTOR('',#283,1.);
#283 = DIRECTION('',(6.131134426496E-17,1.,-2.22044604925E-16));
#284 = ORIENTED_EDGE('',*,*,#285,.T.);
#285 = EDGE_CURVE('',#278,#278,#286,.T.);
#286 = CIRCLE('',#287,2.75);
#287 = AXIS2_PLACEMENT_3D('',#288,#289,#290);
#288 = CARTESIAN_POINT('',(17.,-20.,66.5));
#289 = DIRECTION('',(0.,-1.,2.22044604925E-16));
#290 = DIRECTION('',(-1.,0.,0.));
#291 = ORIENTED_EDGE('',*,*,#277,.T.);
#292 = ORIENTED_EDGE('',*,*,#55,.T.);
#293 = CYLINDRICAL_SURFACE('',#294,2.75);
#294 = AXIS2_PLACEMENT_3D('',#295,#296,#297);
#295 = CARTESIAN_POINT('',(17.,-20.,66.5));
#296 = DIRECTION('',(0.,1.,-2.22044604925E-16));
#297 = DIRECTION('',(-1.,0.,0.));
#298 = ADVANCED_FACE('',(#299),#318,.F.);
#299 = FACE_BOUND('',#300,.T.);
#300 = EDGE_LOOP('',(#301,#309,#316,#317));
#301 = ORIENTED_EDGE('',*,*,#302,.F.);
#302 = EDGE_CURVE('',#303,#67,#305,.T.);
#303 = VERTEX_POINT('',#304);
#304 = CARTESIAN_POINT('',(13.75,-30.,47.5));
#305 = LINE('',#306,#307);
#306 = CARTESIAN_POINT('',(13.75,-30.,47.5));
#307 = VECTOR('',#308,1.);
#308 = DIRECTION('',(6.125186328388E-17,1.,-2.22044604925E-16));
#309 = ORIENTED_EDGE('',*,*,#310,.T.);
#310 = EDGE_CURVE('',#303,#303,#311,.T.);
#311 = CIRCLE('',#312,3.25);
#312 = AXIS2_PLACEMENT_3D('',#313,#314,#315);
#313 = CARTESIAN_POINT('',(17.,-30.,47.5));
#314 = DIRECTION('',(0.,-1.,2.22044604925E-16));
#315 = DIRECTION('',(-1.,0.,0.));
#316 = ORIENTED_EDGE('',*,*,#302,.T.);
#317 = ORIENTED_EDGE('',*,*,#66,.T.);
#318 = CYLINDRICAL_SURFACE('',#319,3.25);
#319 = AXIS2_PLACEMENT_3D('',#320,#321,#322);
#320 = CARTESIAN_POINT('',(17.,-30.,47.5));
#321 = DIRECTION('',(0.,1.,-2.22044604925E-16));
#322 = DIRECTION('',(-1.,0.,0.));
#323 = ADVANCED_FACE('',(#324),#343,.F.);
#324 = FACE_BOUND('',#325,.T.);
#325 = EDGE_LOOP('',(#326,#334,#341,#342));
#326 = ORIENTED_EDGE('',*,*,#327,.F.);
#327 = EDGE_CURVE('',#328,#78,#330,.T.);
#328 = VERTEX_POINT('',#329);
#329 = CARTESIAN_POINT('',(13.75,-30.,28.5));
#330 = LINE('',#331,#332);
#331 = CARTESIAN_POINT('',(13.75,-30.,28.5));
#332 = VECTOR('',#333,1.);
#333 = DIRECTION('',(6.125186328388E-17,1.,-2.22044604925E-16));
#334 = ORIENTED_EDGE('',*,*,#335,.T.);
#335 = EDGE_CURVE('',#328,#328,#336,.T.);
#336 = CIRCLE('',#337,3.25);
#337 = AXIS2_PLACEMENT_3D('',#338,#339,#340);
#338 = CARTESIAN_POINT('',(17.,-30.,28.5));
#339 = DIRECTION('',(0.,-1.,2.22044604925E-16));
#340 = DIRECTION('',(-1.,0.,0.));
#341 = ORIENTED_EDGE('',*,*,#327,.T.);
#342 = ORIENTED_EDGE('',*,*,#77,.T.);
#343 = CYLINDRICAL_SURFACE('',#344,3.25);
#344 = AXIS2_PLACEMENT_3D('',#345,#346,#347);
#345 = CARTESIAN_POINT('',(17.,-30.,28.5));
#346 = DIRECTION('',(0.,1.,-2.22044604925E-16));
#347 = DIRECTION('',(-1.,0.,0.));
#348 = ADVANCED_FACE('',(#349),#368,.F.);
#349 = FACE_BOUND('',#350,.T.);
#350 = EDGE_LOOP('',(#351,#359,#366,#367));
#351 = ORIENTED_EDGE('',*,*,#352,.F.);
#352 = EDGE_CURVE('',#353,#89,#355,.T.);
#353 = VERTEX_POINT('',#354);
#354 = CARTESIAN_POINT('',(13.75,-30.,-28.5));
#355 = LINE('',#356,#357);
#356 = CARTESIAN_POINT('',(13.75,-30.,-28.5));
#357 = VECTOR('',#358,1.);
#358 = DIRECTION('',(6.125186328388E-17,1.,-2.22044604925E-16));
#359 = ORIENTED_EDGE('',*,*,#360,.T.);
#360 = EDGE_CURVE('',#353,#353,#361,.T.);
#361 = CIRCLE('',#362,3.25);
#362 = AXIS2_PLACEMENT_3D('',#363,#364,#365);
#363 = CARTESIAN_POINT('',(17.,-30.,-28.5));
#364 = DIRECTION('',(0.,-1.,2.22044604925E-16));
#365 = DIRECTION('',(-1.,0.,0.));
#366 = ORIENTED_EDGE('',*,*,#352,.T.);
#367 = ORIENTED_EDGE('',*,*,#88,.T.);
#368 = CYLINDRICAL_SURFACE('',#369,3.25);
#369 = AXIS2_PLACEMENT_3D('',#370,#371,#372);
#370 = CARTESIAN_POINT('',(17.,-30.,-28.5));
#371 = DIRECTION('',(0.,1.,-2.22044604925E-16));
#372 = DIRECTION('',(-1.,0.,0.));
#373 = ADVANCED_FACE('',(#374),#393,.F.);
#374 = FACE_BOUND('',#375,.T.);
#375 = EDGE_LOOP('',(#376,#384,#391,#392));
#376 = ORIENTED_EDGE('',*,*,#377,.F.);
#377 = EDGE_CURVE('',#378,#100,#380,.T.);
#378 = VERTEX_POINT('',#379);
#379 = CARTESIAN_POINT('',(13.75,-30.,-47.5));
#380 = LINE('',#381,#382);
#381 = CARTESIAN_POINT('',(13.75,-30.,-47.5));
#382 = VECTOR('',#383,1.);
#383 = DIRECTION('',(6.125186328388E-17,1.,-2.22044604925E-16));
#384 = ORIENTED_EDGE('',*,*,#385,.T.);
#385 = EDGE_CURVE('',#378,#378,#386,.T.);
#386 = CIRCLE('',#387,3.25);
#387 = AXIS2_PLACEMENT_3D('',#388,#389,#390);
#388 = CARTESIAN_POINT('',(17.,-30.,-47.5));
#389 = DIRECTION('',(0.,-1.,2.22044604925E-16));
#390 = DIRECTION('',(-1.,0.,0.));
#391 = ORIENTED_EDGE('',*,*,#377,.T.);
#392 = ORIENTED_EDGE('',*,*,#99,.T.);
#393 = CYLINDRICAL_SURFACE('',#394,3.25);
#394 = AXIS2_PLACEMENT_3D('',#395,#396,#397);
#395 = CARTESIAN_POINT('',(17.,-30.,-47.5));
#396 = DIRECTION('',(0.,1.,-2.22044604925E-16));
#397 = DIRECTION('',(-1.,0.,0.));
#398 = ADVANCED_FACE('',(#399),#418,.F.);
#399 = FACE_BOUND('',#400,.T.);
#400 = EDGE_LOOP('',(#401,#409,#416,#417));
#401 = ORIENTED_EDGE('',*,*,#402,.F.);
#402 = EDGE_CURVE('',#403,#111,#405,.T.);
#403 = VERTEX_POINT('',#404);
#404 = CARTESIAN_POINT('',(14.25,-20.,-66.5));
#405 = LINE('',#406,#407);
#406 = CARTESIAN_POINT('',(14.25,-20.,-66.5));
#407 = VECTOR('',#408,1.);
#408 = DIRECTION('',(6.131134426496E-17,1.,-2.22044604925E-16));
#409 = ORIENTED_EDGE('',*,*,#410,.T.);
#410 = EDGE_CURVE('',#403,#403,#411,.T.);
#411 = CIRCLE('',#412,2.75);
#412 = AXIS2_PLACEMENT_3D('',#413,#414,#415);
#413 = CARTESIAN_POINT('',(17.,-20.,-66.5));
#414 = DIRECTION('',(0.,-1.,2.22044604925E-16));
#415 = DIRECTION('',(-1.,0.,0.));
#416 = ORIENTED_EDGE('',*,*,#402,.T.);
#417 = ORIENTED_EDGE('',*,*,#110,.T.);
#418 = CYLINDRICAL_SURFACE('',#419,2.75);
#419 = AXIS2_PLACEMENT_3D('',#420,#421,#422);
#420 = CARTESIAN_POINT('',(17.,-20.,-66.5));
#421 = DIRECTION('',(0.,1.,-2.22044604925E-16));
#422 = DIRECTION('',(-1.,0.,0.));
#423 = ADVANCED_FACE('',(#424),#435,.T.);
#424 = FACE_BOUND('',#425,.T.);
#425 = EDGE_LOOP('',(#426,#432,#433,#434));
#426 = ORIENTED_EDGE('',*,*,#427,.T.);
#427 = EDGE_CURVE('',#176,#216,#428,.T.);
#428 = LINE('',#429,#430);
#429 = CARTESIAN_POINT('',(-5.,5.,-90.));
#430 = VECTOR('',#431,1.);
#431 = DIRECTION('',(0.,0.,1.));
#432 = ORIENTED_EDGE('',*,*,#223,.T.);
#433 = ORIENTED_EDGE('',*,*,#127,.F.);
#434 = ORIENTED_EDGE('',*,*,#183,.F.);
#435 = PLANE('',#436);
#436 = AXIS2_PLACEMENT_3D('',#437,#438,#439);
#437 = CARTESIAN_POINT('',(-5.,5.,-90.));
#438 = DIRECTION('',(0.,1.,0.));
#439 = DIRECTION('',(1.,0.,0.));
#440 = ADVANCED_FACE('',(#441,#452,#463,#466,#469,#472,#475),#486,.T.);
#441 = FACE_BOUND('',#442,.T.);
#442 = EDGE_LOOP('',(#443,#444,#445,#451));
#443 = ORIENTED_EDGE('',*,*,#240,.T.);
#444 = ORIENTED_EDGE('',*,*,#207,.T.);
#445 = ORIENTED_EDGE('',*,*,#446,.F.);
#446 = EDGE_CURVE('',#168,#208,#447,.T.);
#447 = LINE('',#448,#449);
#448 = CARTESIAN_POINT('',(-5.,-30.,-90.));
#449 = VECTOR('',#450,1.);
#450 = DIRECTION('',(0.,0.,1.));
#451 = ORIENTED_EDGE('',*,*,#167,.F.);
#452 = FACE_BOUND('',#453,.T.);
#453 = EDGE_LOOP('',(#454));
#454 = ORIENTED_EDGE('',*,*,#455,.F.);
#455 = EDGE_CURVE('',#456,#456,#458,.T.);
#456 = VERTEX_POINT('',#457);
#457 = CARTESIAN_POINT('',(9.5,-30.,66.5));
#458 = CIRCLE('',#459,7.5);
#459 = AXIS2_PLACEMENT_3D('',#460,#461,#462);
#460 = CARTESIAN_POINT('',(17.,-30.,66.5));
#461 = DIRECTION('',(0.,-1.,2.22044604925E-16));
#462 = DIRECTION('',(-1.,0.,0.));
#463 = FACE_BOUND('',#464,.T.);
#464 = EDGE_LOOP('',(#465));
#465 = ORIENTED_EDGE('',*,*,#310,.F.);
#466 = FACE_BOUND('',#467,.T.);
#467 = EDGE_LOOP('',(#468));
#468 = ORIENTED_EDGE('',*,*,#335,.F.);
#469 = FACE_BOUND('',#470,.T.);
#470 = EDGE_LOOP('',(#471));
#471 = ORIENTED_EDGE('',*,*,#360,.F.);
#472 = FACE_BOUND('',#473,.T.);
#473 = EDGE_LOOP('',(#474));
#474 = ORIENTED_EDGE('',*,*,#385,.F.);
#475 = FACE_BOUND('',#476,.T.);
#476 = EDGE_LOOP('',(#477));
#477 = ORIENTED_EDGE('',*,*,#478,.F.);
#478 = EDGE_CURVE('',#479,#479,#481,.T.);
#479 = VERTEX_POINT('',#480);
#480 = CARTESIAN_POINT('',(9.5,-30.,-66.5));
#481 = CIRCLE('',#482,7.5);
#482 = AXIS2_PLACEMENT_3D('',#483,#484,#485);
#483 = CARTESIAN_POINT('',(17.,-30.,-66.5));
#484 = DIRECTION('',(0.,-1.,2.22044604925E-16));
#485 = DIRECTION('',(-1.,0.,0.));
#486 = PLANE('',#487);
#487 = AXIS2_PLACEMENT_3D('',#488,#489,#490);
#488 = CARTESIAN_POINT('',(30.,-30.,-90.));
#489 = DIRECTION('',(0.,-1.,0.));
#490 = DIRECTION('',(-1.,0.,0.));
#491 = ADVANCED_FACE('',(#492,#498,#509),#520,.T.);
#492 = FACE_BOUND('',#493,.T.);
#493 = EDGE_LOOP('',(#494,#495,#496,#497));
#494 = ORIENTED_EDGE('',*,*,#446,.T.);
#495 = ORIENTED_EDGE('',*,*,#215,.T.);
#496 = ORIENTED_EDGE('',*,*,#427,.F.);
#497 = ORIENTED_EDGE('',*,*,#175,.F.);
#498 = FACE_BOUND('',#499,.T.);
#499 = EDGE_LOOP('',(#500));
#500 = ORIENTED_EDGE('',*,*,#501,.F.);
#501 = EDGE_CURVE('',#502,#502,#504,.T.);
#502 = VERTEX_POINT('',#503);
#503 = CARTESIAN_POINT('',(-5.,-5.,6.25));
#504 = ELLIPSE('',#505,3.262414472016,3.25);
#505 = AXIS2_PLACEMENT_3D('',#506,#507,#508);
#506 = CARTESIAN_POINT('',(-5.,-5.,9.5));
#507 = DIRECTION('',(-1.,0.,0.));
#508 = DIRECTION('',(0.,-1.,2.531042553935E-15));
#509 = FACE_BOUND('',#510,.T.);
#510 = EDGE_LOOP('',(#511));
#511 = ORIENTED_EDGE('',*,*,#512,.F.);
#512 = EDGE_CURVE('',#513,#513,#515,.T.);
#513 = VERTEX_POINT('',#514);
#514 = CARTESIAN_POINT('',(-5.,-5.,-12.75143));
#515 = ELLIPSE('',#516,3.262414472016,3.25);
#516 = AXIS2_PLACEMENT_3D('',#517,#518,#519);
#517 = CARTESIAN_POINT('',(-5.,-5.,-9.50143));
#518 = DIRECTION('',(-1.,0.,0.));
#519 = DIRECTION('',(0.,-1.,2.531042553935E-15));
#520 = PLANE('',#521);
#521 = AXIS2_PLACEMENT_3D('',#522,#523,#524);
#522 = CARTESIAN_POINT('',(-5.,-30.,-90.));
#523 = DIRECTION('',(-1.,0.,0.));
#524 = DIRECTION('',(0.,1.,0.));
#525 = ADVANCED_FACE('',(#526),#537,.F.);
#526 = FACE_BOUND('',#527,.F.);
#527 = EDGE_LOOP('',(#528,#529,#535,#536));
#528 = ORIENTED_EDGE('',*,*,#249,.F.);
#529 = ORIENTED_EDGE('',*,*,#530,.F.);
#530 = EDGE_CURVE('',#502,#250,#531,.T.);
#531 = LINE('',#532,#533);
#532 = CARTESIAN_POINT('',(-6.494292047138,-4.869266385879,6.25));
#533 = VECTOR('',#534,1.);
#534 = DIRECTION('',(0.996194698092,-8.715574274766E-02,
    2.205948937142E-16));
#535 = ORIENTED_EDGE('',*,*,#501,.F.);
#536 = ORIENTED_EDGE('',*,*,#530,.T.);
#537 = CYLINDRICAL_SURFACE('',#538,3.25);
#538 = AXIS2_PLACEMENT_3D('',#539,#540,#541);
#539 = CARTESIAN_POINT('',(-6.494292047138,-4.869266385879,9.5));
#540 = DIRECTION('',(0.996194698092,-8.715574274766E-02,
    2.205948937142E-16));
#541 = DIRECTION('',(2.22044604925E-16,6.938893903907E-18,-1.));
#542 = ADVANCED_FACE('',(#543),#554,.F.);
#543 = FACE_BOUND('',#544,.F.);
#544 = EDGE_LOOP('',(#545,#546,#552,#553));
#545 = ORIENTED_EDGE('',*,*,#260,.F.);
#546 = ORIENTED_EDGE('',*,*,#547,.F.);
#547 = EDGE_CURVE('',#513,#261,#548,.T.);
#548 = LINE('',#549,#550);
#549 = CARTESIAN_POINT('',(-6.494292047138,-4.869266385879,-12.75143));
#550 = VECTOR('',#551,1.);
#551 = DIRECTION('',(0.996194698092,-8.715574274766E-02,
    2.205948937142E-16));
#552 = ORIENTED_EDGE('',*,*,#512,.F.);
#553 = ORIENTED_EDGE('',*,*,#547,.T.);
#554 = CYLINDRICAL_SURFACE('',#555,3.25);
#555 = AXIS2_PLACEMENT_3D('',#556,#557,#558);
#556 = CARTESIAN_POINT('',(-6.494292047138,-4.869266385879,-9.50143));
#557 = DIRECTION('',(0.996194698092,-8.715574274766E-02,
    2.205948937142E-16));
#558 = DIRECTION('',(2.22044604925E-16,6.938893903907E-18,-1.));
#559 = ADVANCED_FACE('',(#560,#571),#574,.T.);
#560 = FACE_BOUND('',#561,.T.);
#561 = EDGE_LOOP('',(#562));
#562 = ORIENTED_EDGE('',*,*,#563,.T.);
#563 = EDGE_CURVE('',#564,#564,#566,.T.);
#564 = VERTEX_POINT('',#565);
#565 = CARTESIAN_POINT('',(9.5,-20.,66.5));
#566 = CIRCLE('',#567,7.5);
#567 = AXIS2_PLACEMENT_3D('',#568,#569,#570);
#568 = CARTESIAN_POINT('',(17.,-20.,66.5));
#569 = DIRECTION('',(0.,-1.,2.22044604925E-16));
#570 = DIRECTION('',(-1.,0.,0.));
#571 = FACE_BOUND('',#572,.T.);
#572 = EDGE_LOOP('',(#573));
#573 = ORIENTED_EDGE('',*,*,#285,.F.);
#574 = PLANE('',#575);
#575 = AXIS2_PLACEMENT_3D('',#576,#577,#578);
#576 = CARTESIAN_POINT('',(17.,-20.,66.5));
#577 = DIRECTION('',(0.,-1.,2.22044604925E-16));
#578 = DIRECTION('',(-1.,0.,0.));
#579 = ADVANCED_FACE('',(#580,#591),#594,.T.);
#580 = FACE_BOUND('',#581,.T.);
#581 = EDGE_LOOP('',(#582));
#582 = ORIENTED_EDGE('',*,*,#583,.T.);
#583 = EDGE_CURVE('',#584,#584,#586,.T.);
#584 = VERTEX_POINT('',#585);
#585 = CARTESIAN_POINT('',(9.5,-20.,-66.5));
#586 = CIRCLE('',#587,7.5);
#587 = AXIS2_PLACEMENT_3D('',#588,#589,#590);
#588 = CARTESIAN_POINT('',(17.,-20.,-66.5));
#589 = DIRECTION('',(0.,-1.,2.22044604925E-16));
#590 = DIRECTION('',(-1.,0.,0.));
#591 = FACE_BOUND('',#592,.T.);
#592 = EDGE_LOOP('',(#593));
#593 = ORIENTED_EDGE('',*,*,#410,.F.);
#594 = PLANE('',#595);
#595 = AXIS2_PLACEMENT_3D('',#596,#597,#598);
#596 = CARTESIAN_POINT('',(17.,-20.,-66.5));
#597 = DIRECTION('',(0.,-1.,2.22044604925E-16));
#598 = DIRECTION('',(-1.,0.,0.));
#599 = ADVANCED_FACE('',(#600),#611,.F.);
#600 = FACE_BOUND('',#601,.T.);
#601 = EDGE_LOOP('',(#602,#603,#609,#610));
#602 = ORIENTED_EDGE('',*,*,#455,.T.);
#603 = ORIENTED_EDGE('',*,*,#604,.T.);
#604 = EDGE_CURVE('',#456,#564,#605,.T.);
#605 = LINE('',#606,#607);
#606 = CARTESIAN_POINT('',(9.5,-30.,66.5));
#607 = VECTOR('',#608,1.);
#608 = DIRECTION('',(0.,1.,-2.22044604925E-16));
#609 = ORIENTED_EDGE('',*,*,#563,.F.);
#610 = ORIENTED_EDGE('',*,*,#604,.F.);
#611 = CYLINDRICAL_SURFACE('',#612,7.5);
#612 = AXIS2_PLACEMENT_3D('',#613,#614,#615);
#613 = CARTESIAN_POINT('',(17.,-30.,66.5));
#614 = DIRECTION('',(0.,1.,-2.22044604925E-16));
#615 = DIRECTION('',(-1.,0.,0.));
#616 = ADVANCED_FACE('',(#617),#628,.F.);
#617 = FACE_BOUND('',#618,.T.);
#618 = EDGE_LOOP('',(#619,#620,#626,#627));
#619 = ORIENTED_EDGE('',*,*,#478,.T.);
#620 = ORIENTED_EDGE('',*,*,#621,.T.);
#621 = EDGE_CURVE('',#479,#584,#622,.T.);
#622 = LINE('',#623,#624);
#623 = CARTESIAN_POINT('',(9.5,-30.,-66.5));
#624 = VECTOR('',#625,1.);
#625 = DIRECTION('',(0.,1.,-2.22044604925E-16));
#626 = ORIENTED_EDGE('',*,*,#583,.F.);
#627 = ORIENTED_EDGE('',*,*,#621,.F.);
#628 = CYLINDRICAL_SURFACE('',#629,7.5);
#629 = AXIS2_PLACEMENT_3D('',#630,#631,#632);
#630 = CARTESIAN_POINT('',(17.,-30.,-66.5));
#631 = DIRECTION('',(0.,1.,-2.22044604925E-16));
#632 = DIRECTION('',(-1.,0.,0.));
#633 = ( GEOMETRIC_REPRESENTATION_CONTEXT(3) 
GLOBAL_UNCERTAINTY_ASSIGNED_CONTEXT((#637)) GLOBAL_UNIT_ASSIGNED_CONTEXT
((#634,#635,#636)) REPRESENTATION_CONTEXT('Context #1',
  '3D Context with UNIT and UNCERTAINTY') );
#634 = ( LENGTH_UNIT() NAMED_UNIT(*) SI_UNIT(.MILLI.,.METRE.) );
#635 = ( NAMED_UNIT(*) PLANE_ANGLE_UNIT() SI_UNIT($,.RADIAN.) );
#636 = ( NAMED_UNIT(*) SI_UNIT($,.STERADIAN.) SOLID_ANGLE_UNIT() );
#637 = UNCERTAINTY_MEASURE_WITH_UNIT(LENGTH_MEASURE(1.E-07),#634,
  'distance_accuracy_value','confusion accuracy');
#638 = PRODUCT_RELATED_PRODUCT_CATEGORY('part',$,(#7));
#639 = MECHANICAL_DESIGN_GEOMETRIC_PRESENTATION_REPRESENTATION('',(#640,
    #651,#659),#633);
#640 = STYLED_ITEM('color',(#641),#15);
#641 = PRESENTATION_STYLE_ASSIGNMENT((#642,#648));
#642 = SURFACE_STYLE_USAGE(.BOTH.,#643);
#643 = SURFACE_SIDE_STYLE('',(#644));
#644 = SURFACE_STYLE_FILL_AREA(#645);
#645 = FILL_AREA_STYLE('',(#646));
#646 = FILL_AREA_STYLE_COLOUR('',#647);
#647 = COLOUR_RGB('',0.603921592236,0.494117647409,0.839215695858);
#648 = CURVE_STYLE('',#649,POSITIVE_LENGTH_MEASURE(0.1),#650);
#649 = DRAUGHTING_PRE_DEFINED_CURVE_FONT('continuous');
#650 = COLOUR_RGB('',9.803921729326E-02,9.803921729326E-02,
  9.803921729326E-02);
#651 = OVER_RIDING_STYLED_ITEM('overriding color',(#652),#525,#640);
#652 = PRESENTATION_STYLE_ASSIGNMENT((#653));
#653 = SURFACE_STYLE_USAGE(.BOTH.,#654);
#654 = SURFACE_SIDE_STYLE('',(#655));
#655 = SURFACE_STYLE_FILL_AREA(#656);
#656 = FILL_AREA_STYLE('',(#657));
#657 = FILL_AREA_STYLE_COLOUR('',#658);
#658 = COLOUR_RGB('',0.396078437567,0.658823549747,0.607843160629);
#659 = OVER_RIDING_STYLED_ITEM('overriding color',(#660),#542,#640);
#660 = PRESENTATION_STYLE_ASSIGNMENT((#661));
#661 = SURFACE_STYLE_USAGE(.BOTH.,#662);
#662 = SURFACE_SIDE_STYLE('',(#663));
#663 = SURFACE_STYLE_FILL_AREA(#664);
#664 = FILL_AREA_STYLE('',(#665));
#665 = FILL_AREA_STYLE_COLOUR('',#666);
#666 = COLOUR_RGB('',0.258823543787,0.152941182256,7.058823853731E-02);
ENDSEC;
END-ISO-10303-21;
