ISO-10303-21;
HEADER;
/* Generated by software containing ST-Developer
 * from STEP Tools, Inc. (www.steptools.com) 
 */

FILE_DESCRIPTION(
/* description */ (''),
/* implementation_level */ '2;1');

FILE_NAME(
/* name */ 'C:/Users/alex-/Desktop/piece usinage v1.step',
/* time_stamp */ '2020-05-16T10:10:51+02:00',
/* author */ (''),
/* organization */ (''),
/* preprocessor_version */ 'ST-DEVELOPER v18.1',
/* originating_system */ 'Autodesk Translation Framework v9.3.0.1241',
/* authorisation */ '');

FILE_SCHEMA (('AUTOMOTIVE_DESIGN { 1 0 10303 214 3 1 1 }'));
ENDSEC;

DATA;
#10=MECHANICAL_DESIGN_GEOMETRIC_PRESENTATION_REPRESENTATION('',(#13),#570);
#11=SHAPE_REPRESENTATION_RELATIONSHIP('SRR','None',#577,#12);
#12=ADVANCED_BREP_SHAPE_REPRESENTATION('',(#14),#569);
#13=STYLED_ITEM('',(#586),#14);
#14=MANIFOLD_SOLID_BREP('Corps1',#346);
#15=FACE_BOUND('',#59,.T.);
#16=FACE_BOUND('',#64,.T.);
#17=FACE_BOUND('',#67,.T.);
#18=FACE_BOUND('',#72,.T.);
#19=FACE_BOUND('',#75,.T.);
#20=PLANE('',#369);
#21=PLANE('',#370);
#22=PLANE('',#371);
#23=PLANE('',#372);
#24=PLANE('',#373);
#25=PLANE('',#374);
#26=PLANE('',#375);
#27=PLANE('',#376);
#28=PLANE('',#377);
#29=PLANE('',#378);
#30=PLANE('',#379);
#31=PLANE('',#380);
#32=PLANE('',#381);
#33=PLANE('',#382);
#34=PLANE('',#383);
#35=FACE_OUTER_BOUND('',#53,.T.);
#36=FACE_OUTER_BOUND('',#54,.T.);
#37=FACE_OUTER_BOUND('',#55,.T.);
#38=FACE_OUTER_BOUND('',#56,.T.);
#39=FACE_OUTER_BOUND('',#57,.T.);
#40=FACE_OUTER_BOUND('',#58,.T.);
#41=FACE_OUTER_BOUND('',#60,.T.);
#42=FACE_OUTER_BOUND('',#61,.T.);
#43=FACE_OUTER_BOUND('',#62,.T.);
#44=FACE_OUTER_BOUND('',#63,.T.);
#45=FACE_OUTER_BOUND('',#65,.T.);
#46=FACE_OUTER_BOUND('',#66,.T.);
#47=FACE_OUTER_BOUND('',#68,.T.);
#48=FACE_OUTER_BOUND('',#69,.T.);
#49=FACE_OUTER_BOUND('',#70,.T.);
#50=FACE_OUTER_BOUND('',#71,.T.);
#51=FACE_OUTER_BOUND('',#73,.T.);
#52=FACE_OUTER_BOUND('',#74,.T.);
#53=EDGE_LOOP('',(#235,#236,#237,#238));
#54=EDGE_LOOP('',(#239,#240,#241,#242));
#55=EDGE_LOOP('',(#243,#244,#245,#246));
#56=EDGE_LOOP('',(#247));
#57=EDGE_LOOP('',(#248,#249,#250,#251));
#58=EDGE_LOOP('',(#252,#253,#254,#255));
#59=EDGE_LOOP('',(#256));
#60=EDGE_LOOP('',(#257,#258,#259,#260));
#61=EDGE_LOOP('',(#261,#262,#263,#264));
#62=EDGE_LOOP('',(#265,#266,#267,#268));
#63=EDGE_LOOP('',(#269,#270,#271,#272));
#64=EDGE_LOOP('',(#273));
#65=EDGE_LOOP('',(#274,#275,#276,#277));
#66=EDGE_LOOP('',(#278,#279,#280,#281));
#67=EDGE_LOOP('',(#282));
#68=EDGE_LOOP('',(#283,#284,#285,#286));
#69=EDGE_LOOP('',(#287,#288,#289,#290));
#70=EDGE_LOOP('',(#291,#292,#293,#294));
#71=EDGE_LOOP('',(#295,#296,#297,#298));
#72=EDGE_LOOP('',(#299));
#73=EDGE_LOOP('',(#300,#301,#302,#303,#304,#305,#306,#307,#308,#309,#310,
#311));
#74=EDGE_LOOP('',(#312,#313,#314,#315,#316,#317,#318,#319,#320,#321,#322,
#323));
#75=EDGE_LOOP('',(#324));
#76=LINE('',#478,#115);
#77=LINE('',#484,#116);
#78=LINE('',#490,#117);
#79=LINE('',#496,#118);
#80=LINE('',#498,#119);
#81=LINE('',#500,#120);
#82=LINE('',#501,#121);
#83=LINE('',#504,#122);
#84=LINE('',#506,#123);
#85=LINE('',#507,#124);
#86=LINE('',#510,#125);
#87=LINE('',#512,#126);
#88=LINE('',#513,#127);
#89=LINE('',#516,#128);
#90=LINE('',#518,#129);
#91=LINE('',#519,#130);
#92=LINE('',#522,#131);
#93=LINE('',#524,#132);
#94=LINE('',#525,#133);
#95=LINE('',#528,#134);
#96=LINE('',#530,#135);
#97=LINE('',#531,#136);
#98=LINE('',#534,#137);
#99=LINE('',#536,#138);
#100=LINE('',#537,#139);
#101=LINE('',#540,#140);
#102=LINE('',#542,#141);
#103=LINE('',#543,#142);
#104=LINE('',#546,#143);
#105=LINE('',#548,#144);
#106=LINE('',#549,#145);
#107=LINE('',#552,#146);
#108=LINE('',#554,#147);
#109=LINE('',#555,#148);
#110=LINE('',#558,#149);
#111=LINE('',#560,#150);
#112=LINE('',#561,#151);
#113=LINE('',#563,#152);
#114=LINE('',#564,#153);
#115=VECTOR('',#390,2.5);
#116=VECTOR('',#397,2.5);
#117=VECTOR('',#404,4.00000005960464);
#118=VECTOR('',#411,10.);
#119=VECTOR('',#412,10.);
#120=VECTOR('',#413,10.);
#121=VECTOR('',#414,10.);
#122=VECTOR('',#417,10.);
#123=VECTOR('',#418,10.);
#124=VECTOR('',#419,10.);
#125=VECTOR('',#422,10.);
#126=VECTOR('',#423,10.);
#127=VECTOR('',#424,10.);
#128=VECTOR('',#427,10.);
#129=VECTOR('',#428,10.);
#130=VECTOR('',#429,10.);
#131=VECTOR('',#432,10.);
#132=VECTOR('',#433,10.);
#133=VECTOR('',#434,10.);
#134=VECTOR('',#437,10.);
#135=VECTOR('',#438,10.);
#136=VECTOR('',#439,10.);
#137=VECTOR('',#442,10.);
#138=VECTOR('',#443,10.);
#139=VECTOR('',#444,10.);
#140=VECTOR('',#447,10.);
#141=VECTOR('',#448,10.);
#142=VECTOR('',#449,10.);
#143=VECTOR('',#452,10.);
#144=VECTOR('',#453,10.);
#145=VECTOR('',#454,10.);
#146=VECTOR('',#457,10.);
#147=VECTOR('',#458,10.);
#148=VECTOR('',#459,10.);
#149=VECTOR('',#462,10.);
#150=VECTOR('',#463,10.);
#151=VECTOR('',#464,10.);
#152=VECTOR('',#467,10.);
#153=VECTOR('',#468,10.);
#154=CIRCLE('',#361,2.5175);
#155=CIRCLE('',#362,2.5175);
#156=CIRCLE('',#364,2.5175);
#157=CIRCLE('',#365,2.5175);
#158=CIRCLE('',#367,4.00000005960464);
#159=CIRCLE('',#368,4.00000005960464);
#160=VERTEX_POINT('',#475);
#161=VERTEX_POINT('',#477);
#162=VERTEX_POINT('',#481);
#163=VERTEX_POINT('',#483);
#164=VERTEX_POINT('',#487);
#165=VERTEX_POINT('',#489);
#166=VERTEX_POINT('',#494);
#167=VERTEX_POINT('',#495);
#168=VERTEX_POINT('',#497);
#169=VERTEX_POINT('',#499);
#170=VERTEX_POINT('',#503);
#171=VERTEX_POINT('',#505);
#172=VERTEX_POINT('',#509);
#173=VERTEX_POINT('',#511);
#174=VERTEX_POINT('',#515);
#175=VERTEX_POINT('',#517);
#176=VERTEX_POINT('',#521);
#177=VERTEX_POINT('',#523);
#178=VERTEX_POINT('',#527);
#179=VERTEX_POINT('',#529);
#180=VERTEX_POINT('',#533);
#181=VERTEX_POINT('',#535);
#182=VERTEX_POINT('',#539);
#183=VERTEX_POINT('',#541);
#184=VERTEX_POINT('',#545);
#185=VERTEX_POINT('',#547);
#186=VERTEX_POINT('',#551);
#187=VERTEX_POINT('',#553);
#188=VERTEX_POINT('',#557);
#189=VERTEX_POINT('',#559);
#190=EDGE_CURVE('',#160,#160,#154,.T.);
#191=EDGE_CURVE('',#160,#161,#76,.T.);
#192=EDGE_CURVE('',#161,#161,#155,.T.);
#193=EDGE_CURVE('',#162,#162,#156,.T.);
#194=EDGE_CURVE('',#162,#163,#77,.T.);
#195=EDGE_CURVE('',#163,#163,#157,.T.);
#196=EDGE_CURVE('',#164,#164,#158,.T.);
#197=EDGE_CURVE('',#164,#165,#78,.T.);
#198=EDGE_CURVE('',#165,#165,#159,.T.);
#199=EDGE_CURVE('',#166,#167,#79,.T.);
#200=EDGE_CURVE('',#166,#168,#80,.T.);
#201=EDGE_CURVE('',#169,#168,#81,.T.);
#202=EDGE_CURVE('',#167,#169,#82,.T.);
#203=EDGE_CURVE('',#167,#170,#83,.T.);
#204=EDGE_CURVE('',#171,#169,#84,.T.);
#205=EDGE_CURVE('',#170,#171,#85,.T.);
#206=EDGE_CURVE('',#170,#172,#86,.T.);
#207=EDGE_CURVE('',#173,#171,#87,.T.);
#208=EDGE_CURVE('',#172,#173,#88,.T.);
#209=EDGE_CURVE('',#172,#174,#89,.T.);
#210=EDGE_CURVE('',#175,#173,#90,.T.);
#211=EDGE_CURVE('',#174,#175,#91,.T.);
#212=EDGE_CURVE('',#176,#174,#92,.T.);
#213=EDGE_CURVE('',#177,#175,#93,.T.);
#214=EDGE_CURVE('',#176,#177,#94,.T.);
#215=EDGE_CURVE('',#178,#176,#95,.T.);
#216=EDGE_CURVE('',#179,#177,#96,.T.);
#217=EDGE_CURVE('',#178,#179,#97,.T.);
#218=EDGE_CURVE('',#178,#180,#98,.T.);
#219=EDGE_CURVE('',#181,#179,#99,.T.);
#220=EDGE_CURVE('',#180,#181,#100,.T.);
#221=EDGE_CURVE('',#180,#182,#101,.T.);
#222=EDGE_CURVE('',#183,#181,#102,.T.);
#223=EDGE_CURVE('',#182,#183,#103,.T.);
#224=EDGE_CURVE('',#182,#184,#104,.T.);
#225=EDGE_CURVE('',#185,#183,#105,.T.);
#226=EDGE_CURVE('',#184,#185,#106,.T.);
#227=EDGE_CURVE('',#184,#186,#107,.T.);
#228=EDGE_CURVE('',#187,#185,#108,.T.);
#229=EDGE_CURVE('',#186,#187,#109,.T.);
#230=EDGE_CURVE('',#188,#186,#110,.T.);
#231=EDGE_CURVE('',#189,#187,#111,.T.);
#232=EDGE_CURVE('',#188,#189,#112,.T.);
#233=EDGE_CURVE('',#166,#188,#113,.T.);
#234=EDGE_CURVE('',#168,#189,#114,.T.);
#235=ORIENTED_EDGE('',*,*,#190,.F.);
#236=ORIENTED_EDGE('',*,*,#191,.T.);
#237=ORIENTED_EDGE('',*,*,#192,.F.);
#238=ORIENTED_EDGE('',*,*,#191,.F.);
#239=ORIENTED_EDGE('',*,*,#193,.F.);
#240=ORIENTED_EDGE('',*,*,#194,.T.);
#241=ORIENTED_EDGE('',*,*,#195,.F.);
#242=ORIENTED_EDGE('',*,*,#194,.F.);
#243=ORIENTED_EDGE('',*,*,#196,.F.);
#244=ORIENTED_EDGE('',*,*,#197,.T.);
#245=ORIENTED_EDGE('',*,*,#198,.F.);
#246=ORIENTED_EDGE('',*,*,#197,.F.);
#247=ORIENTED_EDGE('',*,*,#196,.T.);
#248=ORIENTED_EDGE('',*,*,#199,.F.);
#249=ORIENTED_EDGE('',*,*,#200,.T.);
#250=ORIENTED_EDGE('',*,*,#201,.F.);
#251=ORIENTED_EDGE('',*,*,#202,.F.);
#252=ORIENTED_EDGE('',*,*,#203,.F.);
#253=ORIENTED_EDGE('',*,*,#202,.T.);
#254=ORIENTED_EDGE('',*,*,#204,.F.);
#255=ORIENTED_EDGE('',*,*,#205,.F.);
#256=ORIENTED_EDGE('',*,*,#195,.T.);
#257=ORIENTED_EDGE('',*,*,#206,.F.);
#258=ORIENTED_EDGE('',*,*,#205,.T.);
#259=ORIENTED_EDGE('',*,*,#207,.F.);
#260=ORIENTED_EDGE('',*,*,#208,.F.);
#261=ORIENTED_EDGE('',*,*,#209,.F.);
#262=ORIENTED_EDGE('',*,*,#208,.T.);
#263=ORIENTED_EDGE('',*,*,#210,.F.);
#264=ORIENTED_EDGE('',*,*,#211,.F.);
#265=ORIENTED_EDGE('',*,*,#212,.T.);
#266=ORIENTED_EDGE('',*,*,#211,.T.);
#267=ORIENTED_EDGE('',*,*,#213,.F.);
#268=ORIENTED_EDGE('',*,*,#214,.F.);
#269=ORIENTED_EDGE('',*,*,#215,.T.);
#270=ORIENTED_EDGE('',*,*,#214,.T.);
#271=ORIENTED_EDGE('',*,*,#216,.F.);
#272=ORIENTED_EDGE('',*,*,#217,.F.);
#273=ORIENTED_EDGE('',*,*,#192,.T.);
#274=ORIENTED_EDGE('',*,*,#218,.F.);
#275=ORIENTED_EDGE('',*,*,#217,.T.);
#276=ORIENTED_EDGE('',*,*,#219,.F.);
#277=ORIENTED_EDGE('',*,*,#220,.F.);
#278=ORIENTED_EDGE('',*,*,#221,.F.);
#279=ORIENTED_EDGE('',*,*,#220,.T.);
#280=ORIENTED_EDGE('',*,*,#222,.F.);
#281=ORIENTED_EDGE('',*,*,#223,.F.);
#282=ORIENTED_EDGE('',*,*,#190,.T.);
#283=ORIENTED_EDGE('',*,*,#224,.F.);
#284=ORIENTED_EDGE('',*,*,#223,.T.);
#285=ORIENTED_EDGE('',*,*,#225,.F.);
#286=ORIENTED_EDGE('',*,*,#226,.F.);
#287=ORIENTED_EDGE('',*,*,#227,.F.);
#288=ORIENTED_EDGE('',*,*,#226,.T.);
#289=ORIENTED_EDGE('',*,*,#228,.F.);
#290=ORIENTED_EDGE('',*,*,#229,.F.);
#291=ORIENTED_EDGE('',*,*,#230,.T.);
#292=ORIENTED_EDGE('',*,*,#229,.T.);
#293=ORIENTED_EDGE('',*,*,#231,.F.);
#294=ORIENTED_EDGE('',*,*,#232,.F.);
#295=ORIENTED_EDGE('',*,*,#233,.T.);
#296=ORIENTED_EDGE('',*,*,#232,.T.);
#297=ORIENTED_EDGE('',*,*,#234,.F.);
#298=ORIENTED_EDGE('',*,*,#200,.F.);
#299=ORIENTED_EDGE('',*,*,#193,.T.);
#300=ORIENTED_EDGE('',*,*,#234,.T.);
#301=ORIENTED_EDGE('',*,*,#231,.T.);
#302=ORIENTED_EDGE('',*,*,#228,.T.);
#303=ORIENTED_EDGE('',*,*,#225,.T.);
#304=ORIENTED_EDGE('',*,*,#222,.T.);
#305=ORIENTED_EDGE('',*,*,#219,.T.);
#306=ORIENTED_EDGE('',*,*,#216,.T.);
#307=ORIENTED_EDGE('',*,*,#213,.T.);
#308=ORIENTED_EDGE('',*,*,#210,.T.);
#309=ORIENTED_EDGE('',*,*,#207,.T.);
#310=ORIENTED_EDGE('',*,*,#204,.T.);
#311=ORIENTED_EDGE('',*,*,#201,.T.);
#312=ORIENTED_EDGE('',*,*,#233,.F.);
#313=ORIENTED_EDGE('',*,*,#199,.T.);
#314=ORIENTED_EDGE('',*,*,#203,.T.);
#315=ORIENTED_EDGE('',*,*,#206,.T.);
#316=ORIENTED_EDGE('',*,*,#209,.T.);
#317=ORIENTED_EDGE('',*,*,#212,.F.);
#318=ORIENTED_EDGE('',*,*,#215,.F.);
#319=ORIENTED_EDGE('',*,*,#218,.T.);
#320=ORIENTED_EDGE('',*,*,#221,.T.);
#321=ORIENTED_EDGE('',*,*,#224,.T.);
#322=ORIENTED_EDGE('',*,*,#227,.T.);
#323=ORIENTED_EDGE('',*,*,#230,.F.);
#324=ORIENTED_EDGE('',*,*,#198,.T.);
#325=CYLINDRICAL_SURFACE('',#360,2.5175);
#326=CYLINDRICAL_SURFACE('',#363,2.5175);
#327=CYLINDRICAL_SURFACE('',#366,4.00000005960464);
#328=ADVANCED_FACE('',(#35),#325,.F.);
#329=ADVANCED_FACE('',(#36),#326,.F.);
#330=ADVANCED_FACE('',(#37),#327,.T.);
#331=ADVANCED_FACE('',(#38),#20,.T.);
#332=ADVANCED_FACE('',(#39),#21,.T.);
#333=ADVANCED_FACE('',(#40,#15),#22,.T.);
#334=ADVANCED_FACE('',(#41),#23,.T.);
#335=ADVANCED_FACE('',(#42),#24,.T.);
#336=ADVANCED_FACE('',(#43),#25,.T.);
#337=ADVANCED_FACE('',(#44,#16),#26,.T.);
#338=ADVANCED_FACE('',(#45),#27,.T.);
#339=ADVANCED_FACE('',(#46,#17),#28,.T.);
#340=ADVANCED_FACE('',(#47),#29,.T.);
#341=ADVANCED_FACE('',(#48),#30,.T.);
#342=ADVANCED_FACE('',(#49),#31,.T.);
#343=ADVANCED_FACE('',(#50,#18),#32,.T.);
#344=ADVANCED_FACE('',(#51),#33,.T.);
#345=ADVANCED_FACE('',(#52,#19),#34,.F.);
#346=CLOSED_SHELL('',(#328,#329,#330,#331,#332,#333,#334,#335,#336,#337,
#338,#339,#340,#341,#342,#343,#344,#345));
#347=DERIVED_UNIT_ELEMENT(#349,1.);
#348=DERIVED_UNIT_ELEMENT(#572,3.);
#349=(
MASS_UNIT()
NAMED_UNIT(*)
SI_UNIT(.KILO.,.GRAM.)
);
#350=DERIVED_UNIT((#347,#348));
#351=MEASURE_REPRESENTATION_ITEM('density measure',
POSITIVE_RATIO_MEASURE(7850.),#350);
#352=PROPERTY_DEFINITION_REPRESENTATION(#357,#354);
#353=PROPERTY_DEFINITION_REPRESENTATION(#358,#355);
#354=REPRESENTATION('material name',(#356),#569);
#355=REPRESENTATION('density',(#351),#569);
#356=DESCRIPTIVE_REPRESENTATION_ITEM('Acier','Acier');
#357=PROPERTY_DEFINITION('material property','material name',#579);
#358=PROPERTY_DEFINITION('material property','density of part',#579);
#359=AXIS2_PLACEMENT_3D('placement',#473,#384,#385);
#360=AXIS2_PLACEMENT_3D('',#474,#386,#387);
#361=AXIS2_PLACEMENT_3D('',#476,#388,#389);
#362=AXIS2_PLACEMENT_3D('',#479,#391,#392);
#363=AXIS2_PLACEMENT_3D('',#480,#393,#394);
#364=AXIS2_PLACEMENT_3D('',#482,#395,#396);
#365=AXIS2_PLACEMENT_3D('',#485,#398,#399);
#366=AXIS2_PLACEMENT_3D('',#486,#400,#401);
#367=AXIS2_PLACEMENT_3D('',#488,#402,#403);
#368=AXIS2_PLACEMENT_3D('',#491,#405,#406);
#369=AXIS2_PLACEMENT_3D('',#492,#407,#408);
#370=AXIS2_PLACEMENT_3D('',#493,#409,#410);
#371=AXIS2_PLACEMENT_3D('',#502,#415,#416);
#372=AXIS2_PLACEMENT_3D('',#508,#420,#421);
#373=AXIS2_PLACEMENT_3D('',#514,#425,#426);
#374=AXIS2_PLACEMENT_3D('',#520,#430,#431);
#375=AXIS2_PLACEMENT_3D('',#526,#435,#436);
#376=AXIS2_PLACEMENT_3D('',#532,#440,#441);
#377=AXIS2_PLACEMENT_3D('',#538,#445,#446);
#378=AXIS2_PLACEMENT_3D('',#544,#450,#451);
#379=AXIS2_PLACEMENT_3D('',#550,#455,#456);
#380=AXIS2_PLACEMENT_3D('',#556,#460,#461);
#381=AXIS2_PLACEMENT_3D('',#562,#465,#466);
#382=AXIS2_PLACEMENT_3D('',#565,#469,#470);
#383=AXIS2_PLACEMENT_3D('',#566,#471,#472);
#384=DIRECTION('axis',(0.,0.,1.));
#385=DIRECTION('refdir',(1.,0.,0.));
#386=DIRECTION('center_axis',(0.,0.,1.));
#387=DIRECTION('ref_axis',(1.,0.,0.));
#388=DIRECTION('center_axis',(0.,0.,1.));
#389=DIRECTION('ref_axis',(1.,0.,0.));
#390=DIRECTION('',(0.,0.,1.));
#391=DIRECTION('center_axis',(0.,0.,-1.));
#392=DIRECTION('ref_axis',(1.,0.,0.));
#393=DIRECTION('center_axis',(0.,0.,1.));
#394=DIRECTION('ref_axis',(1.,0.,0.));
#395=DIRECTION('center_axis',(0.,0.,1.));
#396=DIRECTION('ref_axis',(1.,0.,0.));
#397=DIRECTION('',(0.,0.,1.));
#398=DIRECTION('center_axis',(0.,0.,-1.));
#399=DIRECTION('ref_axis',(1.,0.,0.));
#400=DIRECTION('center_axis',(0.,-1.,0.));
#401=DIRECTION('ref_axis',(1.,0.,0.));
#402=DIRECTION('center_axis',(0.,-1.,0.));
#403=DIRECTION('ref_axis',(1.,0.,0.));
#404=DIRECTION('',(0.,1.,0.));
#405=DIRECTION('center_axis',(0.,1.,0.));
#406=DIRECTION('ref_axis',(1.,0.,0.));
#407=DIRECTION('center_axis',(0.,-1.,0.));
#408=DIRECTION('ref_axis',(1.,0.,0.));
#409=DIRECTION('center_axis',(1.,0.,0.));
#410=DIRECTION('ref_axis',(0.,0.,-1.));
#411=DIRECTION('',(0.,0.,1.));
#412=DIRECTION('',(0.,1.,0.));
#413=DIRECTION('',(0.,0.,-1.));
#414=DIRECTION('',(0.,1.,0.));
#415=DIRECTION('center_axis',(0.,0.,1.));
#416=DIRECTION('ref_axis',(1.,0.,0.));
#417=DIRECTION('',(-1.,0.,0.));
#418=DIRECTION('',(1.,0.,0.));
#419=DIRECTION('',(0.,1.,0.));
#420=DIRECTION('center_axis',(1.,0.,0.));
#421=DIRECTION('ref_axis',(0.,0.,-1.));
#422=DIRECTION('',(0.,0.,1.));
#423=DIRECTION('',(0.,0.,-1.));
#424=DIRECTION('',(0.,1.,0.));
#425=DIRECTION('center_axis',(0.,0.,1.));
#426=DIRECTION('ref_axis',(1.,0.,0.));
#427=DIRECTION('',(-1.,0.,0.));
#428=DIRECTION('',(1.,0.,0.));
#429=DIRECTION('',(0.,1.,0.));
#430=DIRECTION('center_axis',(-1.,0.,0.));
#431=DIRECTION('ref_axis',(0.,0.,1.));
#432=DIRECTION('',(0.,0.,1.));
#433=DIRECTION('',(0.,0.,1.));
#434=DIRECTION('',(0.,1.,0.));
#435=DIRECTION('center_axis',(0.,0.,1.));
#436=DIRECTION('ref_axis',(1.,0.,0.));
#437=DIRECTION('',(1.,0.,0.));
#438=DIRECTION('',(1.,0.,0.));
#439=DIRECTION('',(0.,1.,0.));
#440=DIRECTION('center_axis',(-1.,0.,0.));
#441=DIRECTION('ref_axis',(0.,0.,1.));
#442=DIRECTION('',(0.,0.,-1.));
#443=DIRECTION('',(0.,0.,1.));
#444=DIRECTION('',(0.,1.,0.));
#445=DIRECTION('center_axis',(0.,0.,-1.));
#446=DIRECTION('ref_axis',(-1.,0.,0.));
#447=DIRECTION('',(1.,0.,0.));
#448=DIRECTION('',(-1.,0.,0.));
#449=DIRECTION('',(0.,1.,0.));
#450=DIRECTION('center_axis',(-1.,0.,0.));
#451=DIRECTION('ref_axis',(0.,0.,1.));
#452=DIRECTION('',(0.,0.,-1.));
#453=DIRECTION('',(0.,0.,1.));
#454=DIRECTION('',(0.,1.,0.));
#455=DIRECTION('center_axis',(0.,0.,-1.));
#456=DIRECTION('ref_axis',(-1.,0.,0.));
#457=DIRECTION('',(1.,0.,0.));
#458=DIRECTION('',(-1.,0.,0.));
#459=DIRECTION('',(0.,1.,0.));
#460=DIRECTION('center_axis',(1.,0.,0.));
#461=DIRECTION('ref_axis',(0.,0.,-1.));
#462=DIRECTION('',(0.,0.,-1.));
#463=DIRECTION('',(0.,0.,-1.));
#464=DIRECTION('',(0.,1.,0.));
#465=DIRECTION('center_axis',(0.,0.,-1.));
#466=DIRECTION('ref_axis',(-1.,0.,0.));
#467=DIRECTION('',(-1.,0.,0.));
#468=DIRECTION('',(-1.,0.,0.));
#469=DIRECTION('center_axis',(0.,1.,0.));
#470=DIRECTION('ref_axis',(0.,0.,1.));
#471=DIRECTION('center_axis',(0.,1.,0.));
#472=DIRECTION('ref_axis',(1.,0.,0.));
#473=CARTESIAN_POINT('',(0.,0.,0.));
#474=CARTESIAN_POINT('Origin',(5.,5.,2.5));
#475=CARTESIAN_POINT('',(2.4825,5.,2.5));
#476=CARTESIAN_POINT('Origin',(5.,5.,2.5));
#477=CARTESIAN_POINT('',(2.4825,5.,12.5));
#478=CARTESIAN_POINT('',(2.4825,5.,2.5));
#479=CARTESIAN_POINT('Origin',(5.,5.,12.5));
#480=CARTESIAN_POINT('Origin',(35.,5.00000007450581,2.5));
#481=CARTESIAN_POINT('',(32.4825,5.00000007450581,2.5));
#482=CARTESIAN_POINT('Origin',(35.,5.00000007450581,2.5));
#483=CARTESIAN_POINT('',(32.4825,5.00000007450581,12.5));
#484=CARTESIAN_POINT('',(32.4825,5.00000007450581,2.5));
#485=CARTESIAN_POINT('Origin',(35.,5.00000007450581,12.5));
#486=CARTESIAN_POINT('Origin',(20.0000002910383,0.,7.50000011175871));
#487=CARTESIAN_POINT('',(16.0000002314337,-40.,7.50000011175871));
#488=CARTESIAN_POINT('Origin',(20.0000002910383,-40.,7.50000011175871));
#489=CARTESIAN_POINT('',(16.0000002314337,0.,7.50000011175871));
#490=CARTESIAN_POINT('',(16.0000002314337,0.,7.50000011175871));
#491=CARTESIAN_POINT('Origin',(20.0000002910383,0.,7.50000011175871));
#492=CARTESIAN_POINT('Origin',(20.0000002910383,-40.,7.50000011175871));
#493=CARTESIAN_POINT('Origin',(40.,0.,12.5));
#494=CARTESIAN_POINT('',(40.,0.,2.5));
#495=CARTESIAN_POINT('',(40.,0.,12.5));
#496=CARTESIAN_POINT('',(40.,0.,0.));
#497=CARTESIAN_POINT('',(40.,10.,2.5));
#498=CARTESIAN_POINT('',(40.,0.,2.5));
#499=CARTESIAN_POINT('',(40.,10.,12.5));
#500=CARTESIAN_POINT('',(40.,10.,0.));
#501=CARTESIAN_POINT('',(40.,0.,12.5));
#502=CARTESIAN_POINT('Origin',(28.0000004172325,0.,12.5));
#503=CARTESIAN_POINT('',(28.0000004172325,0.,12.5));
#504=CARTESIAN_POINT('',(40.,0.,12.5));
#505=CARTESIAN_POINT('',(28.0000004172325,10.,12.5));
#506=CARTESIAN_POINT('',(40.,10.,12.5));
#507=CARTESIAN_POINT('',(28.0000004172325,0.,12.5));
#508=CARTESIAN_POINT('Origin',(28.0000004172325,0.,15.0000002235174));
#509=CARTESIAN_POINT('',(28.0000004172325,0.,15.0000002235174));
#510=CARTESIAN_POINT('',(28.0000004172325,0.,12.5));
#511=CARTESIAN_POINT('',(28.0000004172325,10.,15.0000002235174));
#512=CARTESIAN_POINT('',(28.0000004172325,10.,12.5));
#513=CARTESIAN_POINT('',(28.0000004172325,0.,15.0000002235174));
#514=CARTESIAN_POINT('Origin',(12.0000001788139,0.,15.));
#515=CARTESIAN_POINT('',(12.0000001788139,0.,15.));
#516=CARTESIAN_POINT('',(40.,0.,15.));
#517=CARTESIAN_POINT('',(12.0000001788139,10.,15.));
#518=CARTESIAN_POINT('',(40.,10.,15.));
#519=CARTESIAN_POINT('',(12.0000001788139,0.,15.));
#520=CARTESIAN_POINT('Origin',(12.0000001788139,0.,12.5));
#521=CARTESIAN_POINT('',(12.0000001788139,0.,12.5));
#522=CARTESIAN_POINT('',(12.0000001788139,0.,12.5));
#523=CARTESIAN_POINT('',(12.0000001788139,10.,12.5));
#524=CARTESIAN_POINT('',(12.0000001788139,10.,12.5));
#525=CARTESIAN_POINT('',(12.0000001788139,0.,12.5));
#526=CARTESIAN_POINT('Origin',(0.,0.,12.5));
#527=CARTESIAN_POINT('',(0.,0.,12.5));
#528=CARTESIAN_POINT('',(0.,0.,12.5));
#529=CARTESIAN_POINT('',(0.,10.,12.5));
#530=CARTESIAN_POINT('',(0.,10.,12.5));
#531=CARTESIAN_POINT('',(0.,0.,12.5));
#532=CARTESIAN_POINT('Origin',(0.,0.,2.5));
#533=CARTESIAN_POINT('',(0.,0.,2.5));
#534=CARTESIAN_POINT('',(0.,0.,15.));
#535=CARTESIAN_POINT('',(0.,10.,2.5));
#536=CARTESIAN_POINT('',(0.,10.,15.));
#537=CARTESIAN_POINT('',(0.,0.,2.5));
#538=CARTESIAN_POINT('Origin',(12.0000001788139,0.,2.5));
#539=CARTESIAN_POINT('',(12.0000001788139,0.,2.5));
#540=CARTESIAN_POINT('',(0.,0.,2.5));
#541=CARTESIAN_POINT('',(12.0000001788139,10.,2.5));
#542=CARTESIAN_POINT('',(0.,10.,2.5));
#543=CARTESIAN_POINT('',(12.0000001788139,0.,2.5));
#544=CARTESIAN_POINT('Origin',(12.0000001788139,0.,0.));
#545=CARTESIAN_POINT('',(12.0000001788139,0.,0.));
#546=CARTESIAN_POINT('',(12.0000001788139,0.,2.5));
#547=CARTESIAN_POINT('',(12.0000001788139,10.,0.));
#548=CARTESIAN_POINT('',(12.0000001788139,10.,2.5));
#549=CARTESIAN_POINT('',(12.0000001788139,0.,0.));
#550=CARTESIAN_POINT('Origin',(28.0000004172325,0.,0.));
#551=CARTESIAN_POINT('',(28.0000004172325,0.,0.));
#552=CARTESIAN_POINT('',(0.,0.,0.));
#553=CARTESIAN_POINT('',(28.0000004172325,10.,0.));
#554=CARTESIAN_POINT('',(0.,10.,0.));
#555=CARTESIAN_POINT('',(28.0000004172325,0.,0.));
#556=CARTESIAN_POINT('Origin',(28.0000004172325,0.,2.5));
#557=CARTESIAN_POINT('',(28.0000004172325,0.,2.5));
#558=CARTESIAN_POINT('',(28.0000004172325,0.,2.5));
#559=CARTESIAN_POINT('',(28.0000004172325,10.,2.5));
#560=CARTESIAN_POINT('',(28.0000004172325,10.,2.5));
#561=CARTESIAN_POINT('',(28.0000004172325,0.,2.5));
#562=CARTESIAN_POINT('Origin',(40.,0.,2.5));
#563=CARTESIAN_POINT('',(40.,0.,2.5));
#564=CARTESIAN_POINT('',(40.,10.,2.5));
#565=CARTESIAN_POINT('Origin',(20.,10.,7.50000011175871));
#566=CARTESIAN_POINT('Origin',(20.,0.,7.50000011175871));
#567=UNCERTAINTY_MEASURE_WITH_UNIT(LENGTH_MEASURE(0.01),#571,
'DISTANCE_ACCURACY_VALUE',
'Maximum model space distance between geometric entities at asserted c
onnectivities');
#568=UNCERTAINTY_MEASURE_WITH_UNIT(LENGTH_MEASURE(0.01),#571,
'DISTANCE_ACCURACY_VALUE',
'Maximum model space distance between geometric entities at asserted c
onnectivities');
#569=(
GEOMETRIC_REPRESENTATION_CONTEXT(3)
GLOBAL_UNCERTAINTY_ASSIGNED_CONTEXT((#567))
GLOBAL_UNIT_ASSIGNED_CONTEXT((#571,#573,#574))
REPRESENTATION_CONTEXT('','3D')
);
#570=(
GEOMETRIC_REPRESENTATION_CONTEXT(3)
GLOBAL_UNCERTAINTY_ASSIGNED_CONTEXT((#568))
GLOBAL_UNIT_ASSIGNED_CONTEXT((#571,#573,#574))
REPRESENTATION_CONTEXT('','3D')
);
#571=(
LENGTH_UNIT()
NAMED_UNIT(*)
SI_UNIT(.MILLI.,.METRE.)
);
#572=(
LENGTH_UNIT()
NAMED_UNIT(*)
SI_UNIT($,.METRE.)
);
#573=(
NAMED_UNIT(*)
PLANE_ANGLE_UNIT()
SI_UNIT($,.RADIAN.)
);
#574=(
NAMED_UNIT(*)
SI_UNIT($,.STERADIAN.)
SOLID_ANGLE_UNIT()
);
#575=SHAPE_DEFINITION_REPRESENTATION(#576,#577);
#576=PRODUCT_DEFINITION_SHAPE('',$,#579);
#577=SHAPE_REPRESENTATION('',(#359),#569);
#578=PRODUCT_DEFINITION_CONTEXT('part definition',#583,'design');
#579=PRODUCT_DEFINITION('piece usinage','piece usinage v0',#580,#578);
#580=PRODUCT_DEFINITION_FORMATION('',$,#585);
#581=PRODUCT_RELATED_PRODUCT_CATEGORY('piece usinage v0',
'piece usinage v0',(#585));
#582=APPLICATION_PROTOCOL_DEFINITION('international standard',
'automotive_design',2009,#583);
#583=APPLICATION_CONTEXT(
'Core Data for Automotive Mechanical Design Process');
#584=PRODUCT_CONTEXT('part definition',#583,'mechanical');
#585=PRODUCT('piece usinage','piece usinage v0',$,(#584));
#586=PRESENTATION_STYLE_ASSIGNMENT((#587));
#587=SURFACE_STYLE_USAGE(.BOTH.,#588);
#588=SURFACE_SIDE_STYLE('',(#589));
#589=SURFACE_STYLE_FILL_AREA(#590);
#590=FILL_AREA_STYLE('Acier - Satin\X\E9',(#591));
#591=FILL_AREA_STYLE_COLOUR('Acier - Satin\X\E9',#592);
#592=COLOUR_RGB('Acier - Satin\X\E9',0.627450980392157,0.627450980392157,
0.627450980392157);
ENDSEC;
END-ISO-10303-21;
