ISO-10303-21;
HEADER;
/* Generated by software containing ST-Developer
 * from STEP Tools, Inc. (www.steptools.com) 
 */

FILE_DESCRIPTION(
/* description */ (''),
/* implementation_level */ '2;1');

FILE_NAME(
/* name */ 
'G:/Biblioth\X\E8ques/Desktop/GS6-53DZ Conversion/Axe de centrage pour
 boite de vitesse GS6-53DZ v1.step',
/* time_stamp */ '2020-05-17T13:08:32+02:00',
/* author */ (''),
/* organization */ (''),
/* preprocessor_version */ 'ST-DEVELOPER v18.1',
/* originating_system */ 'Autodesk Translation Framework v9.3.0.1241',
/* authorisation */ '');

FILE_SCHEMA (('AUTOMOTIVE_DESIGN { 1 0 10303 214 3 1 1 }'));
ENDSEC;

DATA;
#10=MECHANICAL_DESIGN_GEOMETRIC_PRESENTATION_REPRESENTATION('',(#13),#181);
#11=SHAPE_REPRESENTATION_RELATIONSHIP('SRR','None',#188,#12);
#12=ADVANCED_BREP_SHAPE_REPRESENTATION('',(#14),#180);
#13=STYLED_ITEM('',(#197),#14);
#14=MANIFOLD_SOLID_BREP('Corps3',#95);
#15=FACE_BOUND('',#33,.T.);
#16=PLANE('',#117);
#17=PLANE('',#119);
#18=PLANE('',#121);
#19=CYLINDRICAL_SURFACE('',#112,7.5);
#20=CYLINDRICAL_SURFACE('',#114,17.5);
#21=CYLINDRICAL_SURFACE('',#120,18.);
#22=FACE_OUTER_BOUND('',#29,.T.);
#23=FACE_OUTER_BOUND('',#30,.T.);
#24=FACE_OUTER_BOUND('',#31,.T.);
#25=FACE_OUTER_BOUND('',#32,.T.);
#26=FACE_OUTER_BOUND('',#34,.T.);
#27=FACE_OUTER_BOUND('',#35,.T.);
#28=FACE_OUTER_BOUND('',#36,.T.);
#29=EDGE_LOOP('',(#67,#68,#69,#70));
#30=EDGE_LOOP('',(#71,#72,#73,#74));
#31=EDGE_LOOP('',(#75,#76,#77,#78));
#32=EDGE_LOOP('',(#79));
#33=EDGE_LOOP('',(#80));
#34=EDGE_LOOP('',(#81));
#35=EDGE_LOOP('',(#82,#83,#84,#85));
#36=EDGE_LOOP('',(#86));
#37=LINE('',#159,#41);
#38=LINE('',#164,#42);
#39=LINE('',#169,#43);
#40=LINE('',#176,#44);
#41=VECTOR('',#128,12.75);
#42=VECTOR('',#135,7.5);
#43=VECTOR('',#140,17.5);
#44=VECTOR('',#151,18.);
#45=CIRCLE('',#110,18.);
#46=CIRCLE('',#111,7.5);
#47=CIRCLE('',#113,7.5);
#48=CIRCLE('',#115,17.5);
#49=CIRCLE('',#116,17.5);
#50=CIRCLE('',#118,18.);
#51=VERTEX_POINT('',#156);
#52=VERTEX_POINT('',#158);
#53=VERTEX_POINT('',#162);
#54=VERTEX_POINT('',#166);
#55=VERTEX_POINT('',#168);
#56=VERTEX_POINT('',#172);
#57=EDGE_CURVE('',#51,#51,#45,.T.);
#58=EDGE_CURVE('',#51,#52,#37,.T.);
#59=EDGE_CURVE('',#52,#52,#46,.T.);
#60=EDGE_CURVE('',#53,#53,#47,.T.);
#61=EDGE_CURVE('',#53,#52,#38,.T.);
#62=EDGE_CURVE('',#54,#54,#48,.T.);
#63=EDGE_CURVE('',#54,#55,#39,.T.);
#64=EDGE_CURVE('',#55,#55,#49,.T.);
#65=EDGE_CURVE('',#56,#56,#50,.T.);
#66=EDGE_CURVE('',#51,#56,#40,.T.);
#67=ORIENTED_EDGE('',*,*,#57,.T.);
#68=ORIENTED_EDGE('',*,*,#58,.T.);
#69=ORIENTED_EDGE('',*,*,#59,.T.);
#70=ORIENTED_EDGE('',*,*,#58,.F.);
#71=ORIENTED_EDGE('',*,*,#60,.F.);
#72=ORIENTED_EDGE('',*,*,#61,.T.);
#73=ORIENTED_EDGE('',*,*,#59,.F.);
#74=ORIENTED_EDGE('',*,*,#61,.F.);
#75=ORIENTED_EDGE('',*,*,#62,.F.);
#76=ORIENTED_EDGE('',*,*,#63,.T.);
#77=ORIENTED_EDGE('',*,*,#64,.T.);
#78=ORIENTED_EDGE('',*,*,#63,.F.);
#79=ORIENTED_EDGE('',*,*,#65,.F.);
#80=ORIENTED_EDGE('',*,*,#64,.F.);
#81=ORIENTED_EDGE('',*,*,#60,.T.);
#82=ORIENTED_EDGE('',*,*,#57,.F.);
#83=ORIENTED_EDGE('',*,*,#66,.T.);
#84=ORIENTED_EDGE('',*,*,#65,.T.);
#85=ORIENTED_EDGE('',*,*,#66,.F.);
#86=ORIENTED_EDGE('',*,*,#62,.T.);
#87=CONICAL_SURFACE('',#109,12.75,1.1263771168938);
#88=ADVANCED_FACE('',(#22),#87,.T.);
#89=ADVANCED_FACE('',(#23),#19,.T.);
#90=ADVANCED_FACE('',(#24),#20,.T.);
#91=ADVANCED_FACE('',(#25,#15),#16,.F.);
#92=ADVANCED_FACE('',(#26),#17,.T.);
#93=ADVANCED_FACE('',(#27),#21,.T.);
#94=ADVANCED_FACE('',(#28),#18,.F.);
#95=CLOSED_SHELL('',(#88,#89,#90,#91,#92,#93,#94));
#96=DERIVED_UNIT_ELEMENT(#98,1.);
#97=DERIVED_UNIT_ELEMENT(#183,3.);
#98=(
MASS_UNIT()
NAMED_UNIT(*)
SI_UNIT(.KILO.,.GRAM.)
);
#99=DERIVED_UNIT((#96,#97));
#100=MEASURE_REPRESENTATION_ITEM('density measure',
POSITIVE_RATIO_MEASURE(7850.),#99);
#101=PROPERTY_DEFINITION_REPRESENTATION(#106,#103);
#102=PROPERTY_DEFINITION_REPRESENTATION(#107,#104);
#103=REPRESENTATION('material name',(#105),#180);
#104=REPRESENTATION('density',(#100),#180);
#105=DESCRIPTIVE_REPRESENTATION_ITEM('Acier','Acier');
#106=PROPERTY_DEFINITION('material property','material name',#190);
#107=PROPERTY_DEFINITION('material property','density of part',#190);
#108=AXIS2_PLACEMENT_3D('placement',#154,#122,#123);
#109=AXIS2_PLACEMENT_3D('',#155,#124,#125);
#110=AXIS2_PLACEMENT_3D('',#157,#126,#127);
#111=AXIS2_PLACEMENT_3D('',#160,#129,#130);
#112=AXIS2_PLACEMENT_3D('',#161,#131,#132);
#113=AXIS2_PLACEMENT_3D('',#163,#133,#134);
#114=AXIS2_PLACEMENT_3D('',#165,#136,#137);
#115=AXIS2_PLACEMENT_3D('',#167,#138,#139);
#116=AXIS2_PLACEMENT_3D('',#170,#141,#142);
#117=AXIS2_PLACEMENT_3D('',#171,#143,#144);
#118=AXIS2_PLACEMENT_3D('',#173,#145,#146);
#119=AXIS2_PLACEMENT_3D('',#174,#147,#148);
#120=AXIS2_PLACEMENT_3D('',#175,#149,#150);
#121=AXIS2_PLACEMENT_3D('',#177,#152,#153);
#122=DIRECTION('axis',(0.,0.,1.));
#123=DIRECTION('refdir',(1.,0.,0.));
#124=DIRECTION('center_axis',(0.,0.,-1.));
#125=DIRECTION('ref_axis',(1.,0.,0.));
#126=DIRECTION('center_axis',(0.,0.,1.));
#127=DIRECTION('ref_axis',(1.,0.,0.));
#128=DIRECTION('',(0.90286051882393,-1.10568524445424E-16,0.429933580392348));
#129=DIRECTION('center_axis',(0.,0.,-1.));
#130=DIRECTION('ref_axis',(1.,0.,0.));
#131=DIRECTION('center_axis',(0.,0.,1.));
#132=DIRECTION('ref_axis',(1.,0.,0.));
#133=DIRECTION('center_axis',(0.,0.,1.));
#134=DIRECTION('ref_axis',(1.,0.,0.));
#135=DIRECTION('',(0.,0.,-1.));
#136=DIRECTION('center_axis',(0.,0.,1.));
#137=DIRECTION('ref_axis',(1.,0.,0.));
#138=DIRECTION('center_axis',(0.,0.,-1.));
#139=DIRECTION('ref_axis',(1.,0.,0.));
#140=DIRECTION('',(0.,0.,1.));
#141=DIRECTION('center_axis',(0.,0.,-1.));
#142=DIRECTION('ref_axis',(1.,0.,0.));
#143=DIRECTION('center_axis',(0.,0.,1.));
#144=DIRECTION('ref_axis',(1.,0.,0.));
#145=DIRECTION('center_axis',(0.,0.,1.));
#146=DIRECTION('ref_axis',(1.,0.,0.));
#147=DIRECTION('center_axis',(0.,0.,1.));
#148=DIRECTION('ref_axis',(1.,0.,0.));
#149=DIRECTION('center_axis',(0.,0.,1.));
#150=DIRECTION('ref_axis',(1.,0.,0.));
#151=DIRECTION('',(0.,0.,-1.));
#152=DIRECTION('center_axis',(0.,0.,1.));
#153=DIRECTION('ref_axis',(1.,0.,0.));
#154=CARTESIAN_POINT('',(0.,0.,0.));
#155=CARTESIAN_POINT('Origin',(0.,0.,14.5));
#156=CARTESIAN_POINT('',(-18.,-2.20436423846524E-15,12.));
#157=CARTESIAN_POINT('Origin',(0.,0.,12.));
#158=CARTESIAN_POINT('',(-7.5,9.18485099360515E-16,17.));
#159=CARTESIAN_POINT('',(-12.75,1.56142466891288E-15,14.5));
#160=CARTESIAN_POINT('Origin',(0.,0.,17.));
#161=CARTESIAN_POINT('Origin',(0.,0.,0.));
#162=CARTESIAN_POINT('',(-7.5,-9.18485099360515E-16,100.));
#163=CARTESIAN_POINT('Origin',(0.,0.,100.));
#164=CARTESIAN_POINT('',(-7.5,-9.18485099360515E-16,0.));
#165=CARTESIAN_POINT('Origin',(0.,0.,0.));
#166=CARTESIAN_POINT('',(-17.5,-2.14313189850787E-15,0.));
#167=CARTESIAN_POINT('Origin',(0.,0.,0.));
#168=CARTESIAN_POINT('',(-17.5,-2.14313189850787E-15,11.));
#169=CARTESIAN_POINT('',(-17.5,-2.14313189850787E-15,0.));
#170=CARTESIAN_POINT('Origin',(0.,0.,11.));
#171=CARTESIAN_POINT('Origin',(0.,0.,11.));
#172=CARTESIAN_POINT('',(-18.,-2.20436423846524E-15,11.));
#173=CARTESIAN_POINT('Origin',(0.,0.,11.));
#174=CARTESIAN_POINT('Origin',(0.,0.,100.));
#175=CARTESIAN_POINT('Origin',(0.,0.,0.));
#176=CARTESIAN_POINT('',(-18.,-2.20436423846524E-15,0.));
#177=CARTESIAN_POINT('Origin',(0.,0.,0.));
#178=UNCERTAINTY_MEASURE_WITH_UNIT(LENGTH_MEASURE(0.01),#182,
'DISTANCE_ACCURACY_VALUE',
'Maximum model space distance between geometric entities at asserted c
onnectivities');
#179=UNCERTAINTY_MEASURE_WITH_UNIT(LENGTH_MEASURE(0.01),#182,
'DISTANCE_ACCURACY_VALUE',
'Maximum model space distance between geometric entities at asserted c
onnectivities');
#180=(
GEOMETRIC_REPRESENTATION_CONTEXT(3)
GLOBAL_UNCERTAINTY_ASSIGNED_CONTEXT((#178))
GLOBAL_UNIT_ASSIGNED_CONTEXT((#182,#184,#185))
REPRESENTATION_CONTEXT('','3D')
);
#181=(
GEOMETRIC_REPRESENTATION_CONTEXT(3)
GLOBAL_UNCERTAINTY_ASSIGNED_CONTEXT((#179))
GLOBAL_UNIT_ASSIGNED_CONTEXT((#182,#184,#185))
REPRESENTATION_CONTEXT('','3D')
);
#182=(
LENGTH_UNIT()
NAMED_UNIT(*)
SI_UNIT(.MILLI.,.METRE.)
);
#183=(
LENGTH_UNIT()
NAMED_UNIT(*)
SI_UNIT($,.METRE.)
);
#184=(
NAMED_UNIT(*)
PLANE_ANGLE_UNIT()
SI_UNIT($,.RADIAN.)
);
#185=(
NAMED_UNIT(*)
SI_UNIT($,.STERADIAN.)
SOLID_ANGLE_UNIT()
);
#186=SHAPE_DEFINITION_REPRESENTATION(#187,#188);
#187=PRODUCT_DEFINITION_SHAPE('',$,#190);
#188=SHAPE_REPRESENTATION('',(#108),#180);
#189=PRODUCT_DEFINITION_CONTEXT('part definition',#194,'design');
#190=PRODUCT_DEFINITION(
'Axe de centrage pour boite de vitesse GS6-53DZ',
'Axe de centrage pour boite de vitesse GS6-53DZ v1',#191,#189);
#191=PRODUCT_DEFINITION_FORMATION('',$,#196);
#192=PRODUCT_RELATED_PRODUCT_CATEGORY(
'Axe de centrage pour boite de vitesse GS6-53DZ v1',
'Axe de centrage pour boite de vitesse GS6-53DZ v1',(#196));
#193=APPLICATION_PROTOCOL_DEFINITION('international standard',
'automotive_design',2009,#194);
#194=APPLICATION_CONTEXT(
'Core Data for Automotive Mechanical Design Process');
#195=PRODUCT_CONTEXT('part definition',#194,'mechanical');
#196=PRODUCT('Axe de centrage pour boite de vitesse GS6-53DZ',
'Axe de centrage pour boite de vitesse GS6-53DZ v1',$,(#195));
#197=PRESENTATION_STYLE_ASSIGNMENT((#198));
#198=SURFACE_STYLE_USAGE(.BOTH.,#199);
#199=SURFACE_SIDE_STYLE('',(#200));
#200=SURFACE_STYLE_FILL_AREA(#201);
#201=FILL_AREA_STYLE('Acier - Satin\X\E9',(#202));
#202=FILL_AREA_STYLE_COLOUR('Acier - Satin\X\E9',#203);
#203=COLOUR_RGB('Acier - Satin\X\E9',0.627450980392157,0.627450980392157,
0.627450980392157);
ENDSEC;
END-ISO-10303-21;
