ISO-10303-21;
HEADER;
FILE_DESCRIPTION (( 'STEP AP203' ),
    '1' );
FILE_NAME ('CACHE LATERAL.STEP',
    '2020-05-28T10:43:09',
    ( '' ),
    ( '' ),
    'SwSTEP 2.0',
    'SolidWorks 2016',
    '' );
FILE_SCHEMA (( 'CONFIG_CONTROL_DESIGN' ));
ENDSEC;

DATA;
#1 = ORGANIZATION ( 'UNSPECIFIED', 'UNSPECIFIED', '' ) ;
#2 =( NAMED_UNIT ( * ) SI_UNIT ( $, .STERADIAN. ) SOLID_ANGLE_UNIT ( ) );
#3 = CARTESIAN_POINT ( 'NONE',  ( 108.1955211024978900, 10.86304909560721700, 0.0000000000000000000 ) ) ;
#4 = EDGE_CURVE ( 'NONE', #344, #185, #216, .T. ) ;
#5 = AXIS2_PLACEMENT_3D ( 'NONE', #165, #192, #106 ) ;
#6 = APPLICATION_PROTOCOL_DEFINITION ( 'international standard', 'config_control_design', 1994, #179 ) ;
#7 = CALENDAR_DATE ( 2020, 28, 5 ) ;
#8 = ORIENTED_EDGE ( 'NONE', *, *, #24, .F. ) ;
#9 = PERSON_AND_ORGANIZATION ( #288, #1 ) ;
#10 = PLANE ( 'NONE',  #260 ) ;
#11 = ADVANCED_BREP_SHAPE_REPRESENTATION ( 'CACHE LATERAL', ( #226, #221 ), #78 ) ;
#12 = CARTESIAN_POINT ( 'NONE',  ( -148.5544788975021200, 35.86304909560721700, 6.000000000000000000 ) ) ;
#13 = CARTESIAN_POINT ( 'NONE',  ( -150.8044788975021200, 27.86304909560721700, 0.0000000000000000000 ) ) ;
#14 = DATE_TIME_ROLE ( 'classification_date' ) ;
#15 = VECTOR ( 'NONE', #222, 1000.000000000000000 ) ;
#16 = DIRECTION ( 'NONE',  ( 1.000000000000000000, 0.0000000000000000000, 0.0000000000000000000 ) ) ;
#17 = CC_DESIGN_PERSON_AND_ORGANIZATION_ASSIGNMENT ( #302, #103, ( #89 ) ) ;
#18 = APPROVAL_ROLE ( '' ) ;
#19 = VERTEX_POINT ( 'NONE', #3 ) ;
#20 = VERTEX_POINT ( 'NONE', #295 ) ;
#21 = LINE ( 'NONE', #163, #286 ) ;
#22 = CARTESIAN_POINT ( 'NONE',  ( 0.0000000000000000000, 0.0000000000000000000, 0.0000000000000000000 ) ) ;
#23 = CC_DESIGN_APPROVAL ( #32, ( #174 ) ) ;
#24 = EDGE_CURVE ( 'NONE', #43, #227, #136, .T. ) ;
#25 = LINE ( 'NONE', #320, #325 ) ;
#26 = PLANE ( 'NONE',  #351 ) ;
#27 = PERSON_AND_ORGANIZATION ( #288, #1 ) ;
#28 = ADVANCED_FACE ( 'NONE', ( #67 ), #240, .F. ) ;
#29 = CARTESIAN_POINT ( 'NONE',  ( -150.8044788975021200, 10.86304909560721700, 6.000000000000000000 ) ) ;
#30 = APPLICATION_PROTOCOL_DEFINITION ( 'international standard', 'config_control_design', 1994, #322 ) ;
#31 = PRODUCT_DEFINITION_SHAPE ( 'NONE', 'NONE',  #159 ) ;
#32 = APPROVAL ( #161, 'UNSPECIFIED' ) ;
#33 = VECTOR ( 'NONE', #237, 1000.000000000000000 ) ;
#34 = CARTESIAN_POINT ( 'NONE',  ( 105.9455211024978900, 30.86304909560721700, 6.000000000000000000 ) ) ;
#35 = DIRECTION ( 'NONE',  ( 0.0000000000000000000, -0.0000000000000000000, -1.000000000000000000 ) ) ;
#36 = ORIENTED_EDGE ( 'NONE', *, *, #54, .T. ) ;
#37 = EDGE_CURVE ( 'NONE', #227, #357, #208, .T. ) ;
#38 = CARTESIAN_POINT ( 'NONE',  ( 108.1955211024978900, 10.86304909560721700, 6.000000000000000000 ) ) ;
#39 = ORIENTED_EDGE ( 'NONE', *, *, #134, .T. ) ;
#40 = COORDINATED_UNIVERSAL_TIME_OFFSET ( 1, 0, .AHEAD. ) ;
#41 = EDGE_CURVE ( 'NONE', #284, #223, #334, .T. ) ;
#42 = CC_DESIGN_APPROVAL ( #122, ( #89 ) ) ;
#43 = VERTEX_POINT ( 'NONE', #85 ) ;
#44 = EDGE_CURVE ( 'NONE', #19, #356, #348, .T. ) ;
#45 = ADVANCED_FACE ( 'NONE', ( #224 ), #26, .F. ) ;
#46 = CALENDAR_DATE ( 2020, 28, 5 ) ;
#47 = DIRECTION ( 'NONE',  ( -0.0000000000000000000, 0.0000000000000000000, -1.000000000000000000 ) ) ;
#48 = APPROVAL ( #176, 'UNSPECIFIED' ) ;
#49 = CARTESIAN_POINT ( 'NONE',  ( 105.9455211024978900, 30.86304909560721700, 6.000000000000000000 ) ) ;
#50 = CARTESIAN_POINT ( 'NONE',  ( -148.5544788975021200, 35.86304909560721700, 0.0000000000000000000 ) ) ;
#51 = ORIENTED_EDGE ( 'NONE', *, *, #292, .F. ) ;
#52 = ORIENTED_EDGE ( 'NONE', *, *, #230, .T. ) ;
#53 = VECTOR ( 'NONE', #328, 1000.000000000000100 ) ;
#54 = EDGE_CURVE ( 'NONE', #289, #227, #108, .T. ) ;
#55 = AXIS2_PLACEMENT_3D ( 'NONE', #22, #360, #189 ) ;
#56 =( NAMED_UNIT ( * ) PLANE_ANGLE_UNIT ( ) SI_UNIT ( $, .RADIAN. ) );
#57 = ORIENTED_EDGE ( 'NONE', *, *, #54, .F. ) ;
#58 = VECTOR ( 'NONE', #145, 1000.000000000000000 ) ;
#59 = VECTOR ( 'NONE', #199, 1000.000000000000000 ) ;
#60 = VECTOR ( 'NONE', #220, 1000.000000000000000 ) ;
#61 = ORIENTED_EDGE ( 'NONE', *, *, #96, .F. ) ;
#62 = ORIENTED_EDGE ( 'NONE', *, *, #4, .F. ) ;
#63 = CARTESIAN_POINT ( 'NONE',  ( -148.5544788975021200, 35.86304909560721700, 6.000000000000000000 ) ) ;
#64 = FACE_OUTER_BOUND ( 'NONE', #201, .T. ) ;
#65 = CARTESIAN_POINT ( 'NONE',  ( -150.8044788975021200, 27.86304909560721700, 0.0000000000000000000 ) ) ;
#66 = COORDINATED_UNIVERSAL_TIME_OFFSET ( 1, 0, .AHEAD. ) ;
#67 = FACE_OUTER_BOUND ( 'NONE', #274, .T. ) ;
#68 = CC_DESIGN_DATE_AND_TIME_ASSIGNMENT ( #278, #14, ( #174 ) ) ;
#69 = APPROVAL_PERSON_ORGANIZATION ( #242, #122, #287 ) ;
#70 = CARTESIAN_POINT ( 'NONE',  ( -148.5544788975021200, 35.86304909560721700, 6.000000000000000000 ) ) ;
#71 = CARTESIAN_POINT ( 'NONE',  ( -148.5544788975021200, 30.86304909560722000, 6.000000000000000000 ) ) ;
#72 = PRODUCT_RELATED_PRODUCT_CATEGORY ( 'detail', '', ( #168 ) ) ;
#73 = EDGE_LOOP ( 'NONE', ( #146, #352, #180, #104 ) ) ;
#74 = ORIENTED_EDGE ( 'NONE', *, *, #339, .F. ) ;
#75 = FACE_OUTER_BOUND ( 'NONE', #73, .T. ) ;
#76 = EDGE_CURVE ( 'NONE', #284, #79, #181, .T. ) ;
#77 = PERSON_AND_ORGANIZATION_ROLE ( 'creator' ) ;
#78 =( GEOMETRIC_REPRESENTATION_CONTEXT ( 3 ) GLOBAL_UNCERTAINTY_ASSIGNED_CONTEXT ( ( #149 ) ) GLOBAL_UNIT_ASSIGNED_CONTEXT ( ( #345, #56, #2 ) ) REPRESENTATION_CONTEXT ( 'NONE', 'WORKASPACE' ) );
#79 = VERTEX_POINT ( 'NONE', #29 ) ;
#80 = DATE_AND_TIME ( #247, #164 ) ;
#81 = ORIENTED_EDGE ( 'NONE', *, *, #134, .F. ) ;
#82 = CARTESIAN_POINT ( 'NONE',  ( 108.1955211024978900, 10.86304909560721700, 6.000000000000000000 ) ) ;
#83 = ORIENTED_EDGE ( 'NONE', *, *, #300, .F. ) ;
#84 = LINE ( 'NONE', #332, #218 ) ;
#85 = CARTESIAN_POINT ( 'NONE',  ( 105.9455211024978900, 35.86304909560721700, 6.000000000000000000 ) ) ;
#86 = DIRECTION ( 'NONE',  ( -0.0000000000000000000, 1.000000000000000000, -0.0000000000000000000 ) ) ;
#87 = EDGE_CURVE ( 'NONE', #296, #198, #25, .T. ) ;
#88 = PLANE ( 'NONE',  #211 ) ;
#89 = PRODUCT_DEFINITION_FORMATION_WITH_SPECIFIED_SOURCE ( 'ANY', '', #168, .NOT_KNOWN. ) ;
#90 = DESIGN_CONTEXT ( 'detailed design', #179, 'design' ) ;
#91 = CLOSED_SHELL ( 'NONE', ( #170, #190, #45, #138, #130, #267, #28, #109, #241, #281 ) ) ;
#92 = SHAPE_DEFINITION_REPRESENTATION ( #31, #11 ) ;
#93 = CARTESIAN_POINT ( 'NONE',  ( -148.5544788975021200, 35.86304909560721700, 6.000000000000000000 ) ) ;
#94 = DIRECTION ( 'NONE',  ( 0.0000000000000000000, -0.0000000000000000000, 1.000000000000000000 ) ) ;
#95 = CARTESIAN_POINT ( 'NONE',  ( -148.5544788975021200, 30.86304909560722000, 6.000000000000000000 ) ) ;
#96 = EDGE_CURVE ( 'NONE', #296, #19, #264, .T. ) ;
#97 = DIRECTION ( 'NONE',  ( 0.0000000000000000000, 0.0000000000000000000, 1.000000000000000000 ) ) ;
#98 = CARTESIAN_POINT ( 'NONE',  ( -150.8044788975021200, 27.86304909560721700, 6.000000000000000000 ) ) ;
#99 = PERSON_AND_ORGANIZATION_ROLE ( 'design_supplier' ) ;
#100 = VECTOR ( 'NONE', #263, 1000.000000000000000 ) ;
#101 = FACE_OUTER_BOUND ( 'NONE', #301, .T. ) ;
#102 = PERSON_AND_ORGANIZATION_ROLE ( 'classification_officer' ) ;
#103 = PERSON_AND_ORGANIZATION_ROLE ( 'creator' ) ;
#104 = ORIENTED_EDGE ( 'NONE', *, *, #303, .T. ) ;
#105 = FACE_OUTER_BOUND ( 'NONE', #283, .T. ) ;
#106 = DIRECTION ( 'NONE',  ( 1.000000000000000000, 0.0000000000000000000, 0.0000000000000000000 ) ) ;
#107 = CC_DESIGN_SECURITY_CLASSIFICATION ( #174, ( #89 ) ) ;
#108 = LINE ( 'NONE', #342, #33 ) ;
#109 = ADVANCED_FACE ( 'NONE', ( #101 ), #327, .F. ) ;
#110 = DATE_AND_TIME ( #148, #203 ) ;
#111 = CARTESIAN_POINT ( 'NONE',  ( -150.8044788975021200, 27.86304909560721700, 6.000000000000000000 ) ) ;
#112 = CARTESIAN_POINT ( 'NONE',  ( 108.1955211024978900, 27.86304909560721700, 0.0000000000000000000 ) ) ;
#113 = APPROVAL_ROLE ( '' ) ;
#114 = ORIENTED_EDGE ( 'NONE', *, *, #266, .F. ) ;
#115 = ORIENTED_EDGE ( 'NONE', *, *, #268, .F. ) ;
#116 = FACE_OUTER_BOUND ( 'NONE', #317, .T. ) ;
#117 = PERSON_AND_ORGANIZATION_ROLE ( 'design_owner' ) ;
#118 = ORIENTED_EDGE ( 'NONE', *, *, #249, .F. ) ;
#119 = APPROVAL_PERSON_ORGANIZATION ( #195, #32, #18 ) ;
#120 = CARTESIAN_POINT ( 'NONE',  ( -150.8044788975021200, 10.86304909560721700, 0.0000000000000000000 ) ) ;
#121 = CARTESIAN_POINT ( 'NONE',  ( -148.5544788975021200, 35.86304909560721700, 6.000000000000000000 ) ) ;
#122 = APPROVAL ( #261, 'UNSPECIFIED' ) ;
#123 = DIRECTION ( 'NONE',  ( -1.000000000000000000, 0.0000000000000000000, 0.0000000000000000000 ) ) ;
#124 = EDGE_LOOP ( 'NONE', ( #307, #172, #273, #353, #262, #214, #368, #141 ) ) ;
#125 = VECTOR ( 'NONE', #171, 1000.000000000000000 ) ;
#126 = FACE_OUTER_BOUND ( 'NONE', #238, .T. ) ;
#127 = DIRECTION ( 'NONE',  ( 0.5999999999999999800, 0.7999999999999999300, 0.0000000000000000000 ) ) ;
#128 = CARTESIAN_POINT ( 'NONE',  ( -148.5544788975021200, 30.86304909560722000, 6.000000000000000000 ) ) ;
#129 = DIRECTION ( 'NONE',  ( 0.8000000000000000400, -0.6000000000000000900, 0.0000000000000000000 ) ) ;
#130 = ADVANCED_FACE ( 'NONE', ( #116 ), #350, .F. ) ;
#131 = ORIENTED_EDGE ( 'NONE', *, *, #44, .F. ) ;
#132 = FACE_OUTER_BOUND ( 'NONE', #124, .T. ) ;
#133 = DIRECTION ( 'NONE',  ( 0.0000000000000000000, -1.000000000000000000, 0.0000000000000000000 ) ) ;
#134 = EDGE_CURVE ( 'NONE', #344, #357, #209, .T. ) ;
#135 = ORIENTED_EDGE ( 'NONE', *, *, #219, .T. ) ;
#136 = LINE ( 'NONE', #341, #58 ) ;
#137 = APPROVAL_DATE_TIME ( #110, #48 ) ;
#138 = ADVANCED_FACE ( 'NONE', ( #105 ), #10, .F. ) ;
#139 = CARTESIAN_POINT ( 'NONE',  ( -148.5544788975021200, 35.86304909560721700, 6.000000000000000000 ) ) ;
#140 = VERTEX_POINT ( 'NONE', #49 ) ;
#141 = ORIENTED_EDGE ( 'NONE', *, *, #268, .T. ) ;
#142 = LINE ( 'NONE', #205, #285 ) ;
#143 = COORDINATED_UNIVERSAL_TIME_OFFSET ( 1, 0, .AHEAD. ) ;
#144 = CARTESIAN_POINT ( 'NONE',  ( 0.0000000000000000000, 0.0000000000000000000, 0.0000000000000000000 ) ) ;
#145 = DIRECTION ( 'NONE',  ( -0.0000000000000000000, -0.0000000000000000000, -1.000000000000000000 ) ) ;
#146 = ORIENTED_EDGE ( 'NONE', *, *, #292, .T. ) ;
#147 = ORIENTED_EDGE ( 'NONE', *, *, #37, .F. ) ;
#148 = CALENDAR_DATE ( 2020, 28, 5 ) ;
#149 = UNCERTAINTY_MEASURE_WITH_UNIT (LENGTH_MEASURE( 1.000000000000000100E-005 ), #345, 'distance_accuracy_value', 'NONE');
#150 = CC_DESIGN_PERSON_AND_ORGANIZATION_ASSIGNMENT ( #358, #99, ( #89 ) ) ;
#151 = VERTEX_POINT ( 'NONE', #120 ) ;
#152 = ORIENTED_EDGE ( 'NONE', *, *, #96, .T. ) ;
#153 = CARTESIAN_POINT ( 'NONE',  ( 108.1955211024978900, 27.86304909560721700, 6.000000000000000000 ) ) ;
#154 = LINE ( 'NONE', #95, #53 ) ;
#155 = VECTOR ( 'NONE', #16, 1000.000000000000000 ) ;
#156 = AXIS2_PLACEMENT_3D ( 'NONE', #272, #354, #94 ) ;
#157 = CARTESIAN_POINT ( 'NONE',  ( 105.9455211024978900, 35.86304909560721700, 0.0000000000000000000 ) ) ;
#158 = DIRECTION ( 'NONE',  ( -0.0000000000000000000, 1.000000000000000000, -0.0000000000000000000 ) ) ;
#159 = PRODUCT_DEFINITION ( 'UNKNOWN', '', #89, #90 ) ;
#160 = VECTOR ( 'NONE', #282, 1000.000000000000000 ) ;
#161 = APPROVAL_STATUS ( 'not_yet_approved' ) ;
#162 = PLANE ( 'NONE',  #55 ) ;
#163 = CARTESIAN_POINT ( 'NONE',  ( 105.9455211024978900, 35.86304909560721700, 6.000000000000000000 ) ) ;
#164 = LOCAL_TIME ( 12, 43, 8.000000000000000000, #143 ) ;
#165 = CARTESIAN_POINT ( 'NONE',  ( 0.0000000000000000000, 0.0000000000000000000, 6.000000000000000000 ) ) ;
#166 = DIRECTION ( 'NONE',  ( 0.0000000000000000000, -1.000000000000000000, 0.0000000000000000000 ) ) ;
#167 = ORIENTED_EDGE ( 'NONE', *, *, #311, .F. ) ;
#168 = PRODUCT ( 'CACHE LATERAL', 'CACHE LATERAL', '', ( #299 ) ) ;
#169 = DIRECTION ( 'NONE',  ( -0.0000000000000000000, 1.000000000000000000, -0.0000000000000000000 ) ) ;
#170 = ADVANCED_FACE ( 'NONE', ( #173 ), #88, .F. ) ;
#171 = DIRECTION ( 'NONE',  ( -1.000000000000000000, -0.0000000000000000000, -0.0000000000000000000 ) ) ;
#172 = ORIENTED_EDGE ( 'NONE', *, *, #306, .T. ) ;
#173 = FACE_OUTER_BOUND ( 'NONE', #336, .T. ) ;
#174 = SECURITY_CLASSIFICATION ( '', '', #310 ) ;
#175 = DATE_AND_TIME ( #7, #225 ) ;
#176 = APPROVAL_STATUS ( 'not_yet_approved' ) ;
#177 = DIRECTION ( 'NONE',  ( 0.0000000000000000000, 0.0000000000000000000, 1.000000000000000000 ) ) ;
#178 = CC_DESIGN_PERSON_AND_ORGANIZATION_ASSIGNMENT ( #291, #102, ( #174 ) ) ;
#179 = APPLICATION_CONTEXT ( 'configuration controlled 3d designs of mechanical parts and assemblies' ) ;
#180 = ORIENTED_EDGE ( 'NONE', *, *, #200, .F. ) ;
#181 = LINE ( 'NONE', #111, #100 ) ;
#182 = DIRECTION ( 'NONE',  ( -0.6000000000000004200, 0.7999999999999997100, -0.0000000000000000000 ) ) ;
#183 = DIRECTION ( 'NONE',  ( -0.0000000000000000000, -0.0000000000000000000, -1.000000000000000000 ) ) ;
#184 = DIRECTION ( 'NONE',  ( 1.000000000000000000, 0.0000000000000000000, -0.0000000000000000000 ) ) ;
#185 = VERTEX_POINT ( 'NONE', #252 ) ;
#186 = DIRECTION ( 'NONE',  ( -0.0000000000000000000, -0.0000000000000000000, -1.000000000000000000 ) ) ;
#187 = CARTESIAN_POINT ( 'NONE',  ( 105.9455211024978900, 30.86304909560721700, 0.0000000000000000000 ) ) ;
#188 = ORIENTED_EDGE ( 'NONE', *, *, #24, .T. ) ;
#189 = DIRECTION ( 'NONE',  ( 1.000000000000000000, 0.0000000000000000000, 0.0000000000000000000 ) ) ;
#190 = ADVANCED_FACE ( 'NONE', ( #64 ), #212, .F. ) ;
#191 = VECTOR ( 'NONE', #293, 1000.000000000000000 ) ;
#192 = DIRECTION ( 'NONE',  ( -0.0000000000000000000, 0.0000000000000000000, 1.000000000000000000 ) ) ;
#193 = VECTOR ( 'NONE', #86, 1000.000000000000000 ) ;
#194 = CARTESIAN_POINT ( 'NONE',  ( 105.9455211024978900, 35.86304909560721700, 6.000000000000000000 ) ) ;
#195 = PERSON_AND_ORGANIZATION ( #288, #1 ) ;
#196 = DIRECTION ( 'NONE',  ( 1.000000000000000000, 0.0000000000000000000, -0.0000000000000000000 ) ) ;
#197 = CARTESIAN_POINT ( 'NONE',  ( 108.1955211024978900, 27.86304909560721700, 0.0000000000000000000 ) ) ;
#198 = VERTEX_POINT ( 'NONE', #153 ) ;
#199 = DIRECTION ( 'NONE',  ( -0.0000000000000000000, -0.0000000000000000000, -1.000000000000000000 ) ) ;
#200 = EDGE_CURVE ( 'NONE', #185, #284, #154, .T. ) ;
#201 = EDGE_LOOP ( 'NONE', ( #290, #235, #318, #207 ) ) ;
#202 = AXIS2_PLACEMENT_3D ( 'NONE', #34, #250, #253 ) ;
#203 = LOCAL_TIME ( 12, 43, 8.000000000000000000, #366 ) ;
#204 = DIRECTION ( 'NONE',  ( -0.0000000000000000000, -0.0000000000000000000, -1.000000000000000000 ) ) ;
#205 = CARTESIAN_POINT ( 'NONE',  ( -150.8044788975021200, 10.86304909560721700, 6.000000000000000000 ) ) ;
#206 = DIRECTION ( 'NONE',  ( 1.000000000000000000, 0.0000000000000000000, 0.0000000000000000000 ) ) ;
#207 = ORIENTED_EDGE ( 'NONE', *, *, #266, .T. ) ;
#208 = LINE ( 'NONE', #50, #125 ) ;
#209 = LINE ( 'NONE', #93, #347 ) ;
#210 = LOCAL_TIME ( 12, 43, 8.000000000000000000, #66 ) ;
#211 = AXIS2_PLACEMENT_3D ( 'NONE', #215, #123, #97 ) ;
#212 = PLANE ( 'NONE',  #202 ) ;
#213 = DIRECTION ( 'NONE',  ( 0.0000000000000000000, -1.000000000000000000, 0.0000000000000000000 ) ) ;
#214 = ORIENTED_EDGE ( 'NONE', *, *, #200, .T. ) ;
#215 = CARTESIAN_POINT ( 'NONE',  ( 108.1955211024978900, 27.86304909560721700, 6.000000000000000000 ) ) ;
#216 = LINE ( 'NONE', #139, #191 ) ;
#217 = VECTOR ( 'NONE', #133, 1000.000000000000000 ) ;
#218 = VECTOR ( 'NONE', #182, 1000.000000000000000 ) ;
#219 = EDGE_CURVE ( 'NONE', #79, #151, #142, .T. ) ;
#220 = DIRECTION ( 'NONE',  ( -0.6000000000000004200, 0.7999999999999997100, -0.0000000000000000000 ) ) ;
#221 = AXIS2_PLACEMENT_3D ( 'NONE', #144, #177, #206 ) ;
#222 = DIRECTION ( 'NONE',  ( -1.000000000000000000, -0.0000000000000000000, -0.0000000000000000000 ) ) ;
#223 = VERTEX_POINT ( 'NONE', #13 ) ;
#224 = FACE_OUTER_BOUND ( 'NONE', #248, .T. ) ;
#225 = LOCAL_TIME ( 12, 43, 8.000000000000000000, #326 ) ;
#226 = MANIFOLD_SOLID_BREP ( 'Boss.-Extru.1', #91 ) ;
#227 = VERTEX_POINT ( 'NONE', #157 ) ;
#228 = VECTOR ( 'NONE', #313, 1000.000000000000000 ) ;
#229 = APPROVAL_PERSON_ORGANIZATION ( #27, #48, #113 ) ;
#230 = EDGE_CURVE ( 'NONE', #223, #151, #297, .T. ) ;
#231 = CARTESIAN_POINT ( 'NONE',  ( -148.5544788975021200, 35.86304909560721700, 0.0000000000000000000 ) ) ;
#232 = DATE_TIME_ROLE ( 'creation_date' ) ;
#233 = ORIENTED_EDGE ( 'NONE', *, *, #219, .F. ) ;
#234 = PLANE ( 'NONE',  #5 ) ;
#235 = ORIENTED_EDGE ( 'NONE', *, *, #279, .F. ) ;
#236 = LINE ( 'NONE', #254, #155 ) ;
#237 = DIRECTION ( 'NONE',  ( -0.0000000000000000000, 1.000000000000000000, -0.0000000000000000000 ) ) ;
#238 = EDGE_LOOP ( 'NONE', ( #131, #167, #343, #51, #118, #147, #57, #74 ) ) ;
#239 = LINE ( 'NONE', #359, #228 ) ;
#240 = PLANE ( 'NONE',  #330 ) ;
#241 = ADVANCED_FACE ( 'NONE', ( #132 ), #234, .T. ) ;
#242 = PERSON_AND_ORGANIZATION ( #288, #1 ) ;
#243 = CARTESIAN_POINT ( 'NONE',  ( -148.5544788975021200, 35.86304909560721700, 0.0000000000000000000 ) ) ;
#244 = DIRECTION ( 'NONE',  ( -1.000000000000000000, 0.0000000000000000000, 0.0000000000000000000 ) ) ;
#245 = ORIENTED_EDGE ( 'NONE', *, *, #44, .T. ) ;
#246 = CC_DESIGN_APPROVAL ( #48, ( #159 ) ) ;
#247 = CALENDAR_DATE ( 2020, 28, 5 ) ;
#248 = EDGE_LOOP ( 'NONE', ( #36, #8, #83, #276 ) ) ;
#249 = EDGE_CURVE ( 'NONE', #357, #20, #369, .T. ) ;
#250 = DIRECTION ( 'NONE',  ( -0.7999999999999997100, -0.6000000000000004200, 0.0000000000000000000 ) ) ;
#251 = LINE ( 'NONE', #70, #15 ) ;
#252 = CARTESIAN_POINT ( 'NONE',  ( -148.5544788975021200, 30.86304909560722000, 6.000000000000000000 ) ) ;
#253 = DIRECTION ( 'NONE',  ( 0.6000000000000004200, -0.7999999999999997100, 0.0000000000000000000 ) ) ;
#254 = CARTESIAN_POINT ( 'NONE',  ( -150.8044788975021200, 10.86304909560721700, 0.0000000000000000000 ) ) ;
#255 = APPROVAL_DATE_TIME ( #259, #32 ) ;
#256 = DIRECTION ( 'NONE',  ( -0.0000000000000000000, -0.0000000000000000000, -1.000000000000000000 ) ) ;
#257 = CARTESIAN_POINT ( 'NONE',  ( 105.9455211024978900, 30.86304909560721700, 6.000000000000000000 ) ) ;
#258 = ORIENTED_EDGE ( 'NONE', *, *, #76, .F. ) ;
#259 = DATE_AND_TIME ( #265, #340 ) ;
#260 = AXIS2_PLACEMENT_3D ( 'NONE', #63, #213, #35 ) ;
#261 = APPROVAL_STATUS ( 'not_yet_approved' ) ;
#262 = ORIENTED_EDGE ( 'NONE', *, *, #4, .T. ) ;
#263 = DIRECTION ( 'NONE',  ( 0.0000000000000000000, -1.000000000000000000, 0.0000000000000000000 ) ) ;
#264 = LINE ( 'NONE', #82, #59 ) ;
#265 = CALENDAR_DATE ( 2020, 28, 5 ) ;
#266 = EDGE_CURVE ( 'NONE', #198, #356, #362, .T. ) ;
#267 = ADVANCED_FACE ( 'NONE', ( #75 ), #364, .F. ) ;
#268 = EDGE_CURVE ( 'NONE', #79, #296, #239, .T. ) ;
#269 = CC_DESIGN_PERSON_AND_ORGANIZATION_ASSIGNMENT ( #349, #77, ( #159 ) ) ;
#270 = ORIENTED_EDGE ( 'NONE', *, *, #303, .F. ) ;
#271 = CARTESIAN_POINT ( 'NONE',  ( 105.9455211024978900, 30.86304909560721700, 6.000000000000000000 ) ) ;
#272 = CARTESIAN_POINT ( 'NONE',  ( -150.8044788975021200, 10.86304909560721700, 6.000000000000000000 ) ) ;
#273 = ORIENTED_EDGE ( 'NONE', *, *, #300, .T. ) ;
#274 = EDGE_LOOP ( 'NONE', ( #52, #233, #258, #337 ) ) ;
#275 = DIRECTION ( 'NONE',  ( -0.0000000000000000000, -0.0000000000000000000, -1.000000000000000000 ) ) ;
#276 = ORIENTED_EDGE ( 'NONE', *, *, #279, .T. ) ;
#277 = VECTOR ( 'NONE', #204, 1000.000000000000000 ) ;
#278 = DATE_AND_TIME ( #46, #210 ) ;
#279 = EDGE_CURVE ( 'NONE', #140, #289, #355, .T. ) ;
#280 = CARTESIAN_POINT ( 'NONE',  ( 108.1955211024978900, 27.86304909560721700, 6.000000000000000000 ) ) ;
#281 = ADVANCED_FACE ( 'NONE', ( #126 ), #162, .F. ) ;
#282 = DIRECTION ( 'NONE',  ( -0.0000000000000000000, -0.0000000000000000000, -1.000000000000000000 ) ) ;
#283 = EDGE_LOOP ( 'NONE', ( #294, #81, #365, #188 ) ) ;
#284 = VERTEX_POINT ( 'NONE', #98 ) ;
#285 = VECTOR ( 'NONE', #186, 1000.000000000000000 ) ;
#286 = VECTOR ( 'NONE', #158, 1000.000000000000000 ) ;
#287 = APPROVAL_ROLE ( '' ) ;
#288 = PERSON ( 'UNSPECIFIED', 'UNSPECIFIED', 'UNSPECIFIED', ('UNSPECIFIED'), ('UNSPECIFIED'), ('UNSPECIFIED') ) ;
#289 = VERTEX_POINT ( 'NONE', #187 ) ;
#290 = ORIENTED_EDGE ( 'NONE', *, *, #339, .T. ) ;
#291 = PERSON_AND_ORGANIZATION ( #288, #1 ) ;
#292 = EDGE_CURVE ( 'NONE', #20, #223, #363, .T. ) ;
#293 = DIRECTION ( 'NONE',  ( 0.0000000000000000000, -1.000000000000000000, 0.0000000000000000000 ) ) ;
#294 = ORIENTED_EDGE ( 'NONE', *, *, #37, .T. ) ;
#295 = CARTESIAN_POINT ( 'NONE',  ( -148.5544788975021200, 30.86304909560722000, 0.0000000000000000000 ) ) ;
#296 = VERTEX_POINT ( 'NONE', #38 ) ;
#297 = LINE ( 'NONE', #65, #217 ) ;
#298 = VECTOR ( 'NONE', #275, 1000.000000000000000 ) ;
#299 = MECHANICAL_CONTEXT ( 'NONE', #322, 'mechanical' ) ;
#300 = EDGE_CURVE ( 'NONE', #140, #43, #21, .T. ) ;
#301 = EDGE_LOOP ( 'NONE', ( #324, #61, #115, #135 ) ) ;
#302 = PERSON_AND_ORGANIZATION ( #288, #1 ) ;
#303 = EDGE_CURVE ( 'NONE', #185, #20, #319, .T. ) ;
#304 = VECTOR ( 'NONE', #166, 1000.000000000000000 ) ;
#305 = DIRECTION ( 'NONE',  ( -0.0000000000000000000, 0.0000000000000000000, -1.000000000000000000 ) ) ;
#306 = EDGE_CURVE ( 'NONE', #198, #140, #335, .T. ) ;
#307 = ORIENTED_EDGE ( 'NONE', *, *, #87, .T. ) ;
#308 = APPROVAL_DATE_TIME ( #175, #122 ) ;
#309 = CARTESIAN_POINT ( 'NONE',  ( -148.5544788975021200, 30.86304909560722000, 0.0000000000000000000 ) ) ;
#310 = SECURITY_CLASSIFICATION_LEVEL ( 'unclassified' ) ;
#311 = EDGE_CURVE ( 'NONE', #151, #19, #236, .T. ) ;
#312 = DIRECTION ( 'NONE',  ( -0.6000000000000000900, -0.7999999999999999300, 0.0000000000000000000 ) ) ;
#313 = DIRECTION ( 'NONE',  ( 1.000000000000000000, 0.0000000000000000000, 0.0000000000000000000 ) ) ;
#314 = VECTOR ( 'NONE', #256, 1000.000000000000000 ) ;
#315 = VECTOR ( 'NONE', #312, 1000.000000000000100 ) ;
#316 = DIRECTION ( 'NONE',  ( 0.0000000000000000000, 0.0000000000000000000, 1.000000000000000000 ) ) ;
#317 = EDGE_LOOP ( 'NONE', ( #338, #270, #62, #39 ) ) ;
#318 = ORIENTED_EDGE ( 'NONE', *, *, #306, .F. ) ;
#319 = LINE ( 'NONE', #71, #298 ) ;
#320 = CARTESIAN_POINT ( 'NONE',  ( 108.1955211024978900, 27.86304909560721700, 6.000000000000000000 ) ) ;
#321 = AXIS2_PLACEMENT_3D ( 'NONE', #128, #129, #127 ) ;
#322 = APPLICATION_CONTEXT ( 'configuration controlled 3d designs of mechanical parts and assemblies' ) ;
#323 = EDGE_CURVE ( 'NONE', #43, #344, #251, .T. ) ;
#324 = ORIENTED_EDGE ( 'NONE', *, *, #311, .T. ) ;
#325 = VECTOR ( 'NONE', #169, 1000.000000000000000 ) ;
#326 = COORDINATED_UNIVERSAL_TIME_OFFSET ( 1, 0, .AHEAD. ) ;
#327 = PLANE ( 'NONE',  #156 ) ;
#328 = DIRECTION ( 'NONE',  ( -0.6000000000000000900, -0.7999999999999999300, 0.0000000000000000000 ) ) ;
#329 = AXIS2_PLACEMENT_3D ( 'NONE', #121, #184, #305 ) ;
#330 = AXIS2_PLACEMENT_3D ( 'NONE', #367, #196, #47 ) ;
#331 = CC_DESIGN_PERSON_AND_ORGANIZATION_ASSIGNMENT ( #9, #117, ( #168 ) ) ;
#332 = CARTESIAN_POINT ( 'NONE',  ( 105.9455211024978900, 30.86304909560721700, 0.0000000000000000000 ) ) ;
#333 = ORIENTED_EDGE ( 'NONE', *, *, #87, .F. ) ;
#334 = LINE ( 'NONE', #346, #277 ) ;
#335 = LINE ( 'NONE', #271, #60 ) ;
#336 = EDGE_LOOP ( 'NONE', ( #245, #114, #333, #152 ) ) ;
#337 = ORIENTED_EDGE ( 'NONE', *, *, #41, .T. ) ;
#338 = ORIENTED_EDGE ( 'NONE', *, *, #249, .T. ) ;
#339 = EDGE_CURVE ( 'NONE', #356, #289, #84, .T. ) ;
#340 = LOCAL_TIME ( 12, 43, 8.000000000000000000, #40 ) ;
#341 = CARTESIAN_POINT ( 'NONE',  ( 105.9455211024978900, 35.86304909560721700, 6.000000000000000000 ) ) ;
#342 = CARTESIAN_POINT ( 'NONE',  ( 105.9455211024978900, 35.86304909560721700, 0.0000000000000000000 ) ) ;
#343 = ORIENTED_EDGE ( 'NONE', *, *, #230, .F. ) ;
#344 = VERTEX_POINT ( 'NONE', #12 ) ;
#345 =( LENGTH_UNIT ( ) NAMED_UNIT ( * ) SI_UNIT ( .MILLI., .METRE. ) );
#346 = CARTESIAN_POINT ( 'NONE',  ( -150.8044788975021200, 27.86304909560721700, 6.000000000000000000 ) ) ;
#347 = VECTOR ( 'NONE', #183, 1000.000000000000000 ) ;
#348 = LINE ( 'NONE', #112, #193 ) ;
#349 = PERSON_AND_ORGANIZATION ( #288, #1 ) ;
#350 = PLANE ( 'NONE',  #329 ) ;
#351 = AXIS2_PLACEMENT_3D ( 'NONE', #194, #244, #316 ) ;
#352 = ORIENTED_EDGE ( 'NONE', *, *, #41, .F. ) ;
#353 = ORIENTED_EDGE ( 'NONE', *, *, #323, .T. ) ;
#354 = DIRECTION ( 'NONE',  ( 0.0000000000000000000, 1.000000000000000000, 0.0000000000000000000 ) ) ;
#355 = LINE ( 'NONE', #257, #160 ) ;
#356 = VERTEX_POINT ( 'NONE', #197 ) ;
#357 = VERTEX_POINT ( 'NONE', #243 ) ;
#358 = PERSON_AND_ORGANIZATION ( #288, #1 ) ;
#359 = CARTESIAN_POINT ( 'NONE',  ( -150.8044788975021200, 10.86304909560721700, 6.000000000000000000 ) ) ;
#360 = DIRECTION ( 'NONE',  ( -0.0000000000000000000, 0.0000000000000000000, 1.000000000000000000 ) ) ;
#361 = CC_DESIGN_DATE_AND_TIME_ASSIGNMENT ( #80, #232, ( #159 ) ) ;
#362 = LINE ( 'NONE', #280, #314 ) ;
#363 = LINE ( 'NONE', #309, #315 ) ;
#364 = PLANE ( 'NONE',  #321 ) ;
#365 = ORIENTED_EDGE ( 'NONE', *, *, #323, .F. ) ;
#366 = COORDINATED_UNIVERSAL_TIME_OFFSET ( 1, 0, .AHEAD. ) ;
#367 = CARTESIAN_POINT ( 'NONE',  ( -150.8044788975021200, 27.86304909560721700, 6.000000000000000000 ) ) ;
#368 = ORIENTED_EDGE ( 'NONE', *, *, #76, .T. ) ;
#369 = LINE ( 'NONE', #231, #304 ) ;
ENDSEC;
END-ISO-10303-21;
